» » »

Gettin Better Tabs (ver.3)

Artists:  A B C D E F G H I J K L M N O P Q R S T U V W X Y Z # 

Gettin Better Tabs (ver.3)

Tesla
Rating:
0/5 (0 votes)

Tabs too difficult? Try these video lessons and learn fast.
                (Solo)
Solo
ph=pinch harmonics
v=vibrato
b=bend
p=pull off
/=slide down
h=hammer

E|----5-5----5-5----5-5---------------------------------------|   
B|----5-5----5-5----5-5---------------------------------------|   
G|-7^-----7^-----7^-----7p5-----7p5-----ph7---7-5---7-5---7-5-| 
D|--------------------------7p5-----5h7-----5-7-5-5-7-5-5-7-5-|   
A|------------------------------------------------------------|   
E|------------------------------------------------------------|

E|--------------------------19b21-19b21--19b21-17-19-19b21----|   
B|-14-14-14-14-14-15-17-15------------------------------------|   
G|-14-14-14-14-14-14-14-14------------------------------------| 
D|------------------------------------------------------------|   
A|------------------------------------------------------------|   
E|------------------------------------------------------------|

E|-------------------------------------------------------------------|   
B|-19b20-19--17b19--17-19-19b20-19-17b19-17--17-19-19b21-19-17b19-17-|   
G|-------------------------------------------------------------------| 
D|-------------------------------------------------------------------|   
A|-------------------------------------------------------------------|   
E|-------------------------------------------------------------------|

E|------------------------------------------------------------|   
B|-17-19-20-17------------------------------------------------|   
G|-------------19-17------------------------------------------| 
D|-------------------19-17------------------------------------|   
A|-------------------------19-17-15---------------------------|   
E|----------------------------------17-15---------------------|

E|------------------------------------------------------------|   
B|----------------------------------------20------------------|   
G|-------------------------17h19-17-19b21----19b21-19---------| 
D|-------------------17h19------------------------------------|   
A|-------15-17-17/19------------------------------------------|   
E|-15-17------------------------------------------------------|
            
Tabs too difficult? Try these video lessons and learn fast.


comments powered by Disqus
↑ Back to top | Tablatures and chords are parodies/interpretations of the original songs. You may use it for private study, scholarship, research or language learning purposes only