» » »

Games People Play Tabs (ver.1)

Artists:  A B C D E F G H I J K L M N O P Q R S T U V W X Y Z # 

Games People Play Tabs (ver.1)

Tesla
Rating:
0/5 (0 votes)

Hard to play? Try these video lessons and learn fast.
                Auther/Artist:Tesla


Intro:Guitar 1(lead Guitar)
E--------------------------------------------------------|
B--------------------------------------------------------|
G--14b-14b------------14b-14b----------------------------|
D--14b-14b--12h14-12--14b-14b-12-12h14--14s16-14---------|
A--------------------------------------------------------|
E--------------------------------------------------------|

--------------------------------------------------------|
--------------------------------------------------------|
------------12-14s16--14b-14b---------------------------|
--14-12h14------------14b-14b-12h14-12--12s14s12--------|
--------------------------------------------------------|
--------------------------------------------------------|

Intro:Guitar 2(Acoustic)
E--0--0-----0-----3-----0-----0-------0----------|
B--3----3---x-----3-----x-----3--3/5--3----------|
G--2--------2-----0-----2-----2--2/4--2----------|
D--0--------2-----0-----2-----0-------0----------|
A-----------0-----2-----0------------------------|
E-----------------3------------------------------|


Verses/Chorus:(Acoustic)
E--0----0----3----0----0--------|
B--3----x----3----x----3--------|
G--2----2----0----2----2--------|
D--0----2----0----2----0--------|
A-------0----2----0-------------|
E------------3------------------|

Verses/Chorus:(Electric)
E-------------------------------|
B-------------------------------|
G--7-------------------7--------|
D--7----7----5----7----7--------|
A--5----7----5----7----5--------|
E-------5----3----5-------------|
            
Hard to play? Try these video lessons and learn fast. | Correct




comments powered by Disqus
↑ Back to top | Tablatures and chords are parodies/interpretations of the original songs. You may use it for private study, scholarship, research or language learning purposes only