>
 >
Forever More 2

Forever More 2 Guitar Tabs

Tesla - Forever More 2 chords, tabs, tablatures, lyrics

Guitar lessons | Add/correct | Request | Top 50 tabs Artists:  A B C D E F G H I J K L M N O P Q R S T U V W X Y Z 0-9

Forever More 2 Guitar Tabs – Tesla

CD, Sheet music, Poster

Do you like Forever More 2? Share with your friends now
TabsTabs v2Tabs v3Tabs v4
 -------------------------------------------------------------------------------
                             Forever More - Tesla
-------------------------------------------------------------------------------

Tuning: Eb Ab Db Gb Bb Eb

Intro: 
Guitar I 
e|---------------------------------------------------------------------------|
B|-------------6--5------------------------6--5------------3-----------------|
G|---------------------------5--7--------------------------------------------|
D|----------7-------------7------------8---------------5---------------------|
A|-------5-------------------------------------------------------------------|
E|---------------------5----------/6--------------\3-------------------------|

e|---------------------------------------------------------------------------|
B|-------------6--5------------------------6--5------------8-----------------|
G|---------------------------5--7----------------------7---------------------|
D|----------7-------------7------------8-------------------------------------|
A|-------5-------------------------------------------------------------------|
E|---------------------5----------/6--------------/8-------------------------|





Guitar II
e|---------------------------------------------------------------------------|
B|---------------------------------------------------------------------------|
G|------7--7--7--7-----------------------------------------------------------|
D|------7--7--7--7----7--7--7--7----8--8--8--8----5--5--5--5-----------------|
A|------5--5--5--5----7--7--7--7----8--8--8--8----5--5--5--5-----------------|
E|--------------------5--5--5--5----6--6--6--6----3--3--3--3-----------------|

e|---------------------------------------------------------------------------|
B|---------------------------------------------------------------------------|
G|------7--7--7--7-----------------------------------------------------------|
D|------7--7--7--7----7--7--7--7----8--8--8--8----10--10--10--10-------------|
A|------5--5--5--5----7--7--7--7----8--8--8--8----10--10--10--10-------------|
E|--------------------5--5--5--5----6--6--6--6----8---8---8---8--------------|




Guitar I
e|---------------------------------------------------------------------------|
B|-------6--5-----------6--5-----------6--5---------6--5--/8-----------------|
G|--------------5--7---------5-/7-----------5--7-----------------------------|
D|---------------------------------------------------------------------------|
A|---------------------------------------------------------------------------|
E|---------------------------------------------------------------------------|

Guitar II
e|---------------------------------------------------------------------------|
B|-------10--8---------10--8-------------10--8---------10--8----/13----------|
G|--------------9--10---------9-/10-------------9--10------------------------|
D|---------------------------------------------------------------------------|
A|---------------------------------------------------------------------------|
E|---------------------------------------------------------------------------|

 
 


Verse:
 
Guitar I (let ring)
e|---------------0--------------0--------------0--------------0-------|
B|------------3--------------3--------------3--------------3----------|
G|---------2--------------1--------------2--------------1-------------|
D|------0--------------0--------------0--------------0----------------|
A|--------------------------------------------------------------------|
E|--------------------------------------------------------------------|


Guitar II (palm muted downstrokes)
e|--------------------------------------------------------------------|
B|--------------------------------------------------------------------|
G|--------------------------------------------------------------------|
D|-------7--7--7--7--7-----7-/10-----9--9--9--9--9-----9-/10----------|
A|-------5--5--5--5--5-----5-/8------7--7--7--7--7-----7-/8-----------|
E|-------5--5--5--5--5-----5-/8------7--7--7--7--7-----7-/8-----------|






 
Guitar I (lightly palm muted)
e|----0-----0-----0-----0-----0-------------0-----0-----0-----0-----0-------|
B|------3-----3-----3-----3-----3-------------3-----3-----3-----3-----3-----|
G|--------2-----2-----2-----2-----2-------------1-----1-----1-----1-----1---|
D|--0------------------------------------0----------------------------------|
A|--------------------------------------------------------------------------|
E|--------------------------------------------------------------------------|




 



CHORUS:

Guitar I
e|---------------------------------------------------------------------------|
B|--------------------6--5------------------------6--5------------3----------|
G|----------------------------------5--7-------------------------------------|
D|-----------------7-------------7------------8---------------5--------------|
A|--------------5------------------------------------------------------------|
E|---------12\----------------5----------/6--------------\3------------------|

e|---------------------------------------------------------------------------|
B|-------------6--5------------------------6--5------------8-----------------|
G|---------------------------5--7----------------------7---------------------|
D|----------7-------------7------------8-------------------------------------|
A|-------5-------------------------------------------------------------------|
E|---------------------5----------/6--------------/8-------------------------|


Guitar II
e|---------------------------------------------------------------------------|
B|---------------------------------------------------------------------------|
G|------7--7--7--7-----------------------------------------------------------|
D|------7--7--7--7----7--7--7--7----8--8--8--8----5--5--5--5-----------------|
A|------5--5--5--5----7--7--7--7----8--8--8--8----5--5--5--5-----------------|
E|--12\---------------5--5--5--5----6--6--6--6----3--3--3--3-----------------|

e|---------------------------------------------------------------------------|
B|---------------------------------------------------------------------------|
G|------7--7--7--7-----------------------------------------------------------|
D|------7--7--7--7----7--7--7--7----8--8--8--8----10--10--10--10-------------|
A|------5--5--5--5----7--7--7--7----8--8--8--8----10--10--10--10-------------|
E|--------------------5--5--5--5----6--6--6--6----8---8---8---8--------------|







Bridge:
Guitar I
e|---------------------------------------------------------------------------|
B|---7-7-5-5-7-7-5-5-7-7-5-5-7-7-5-5-7-7-5-5-----5-5-7-7-5-5-----------------|
G|-------------------------------------------7-7-------------7-7-5-5---------|
D|---------------------------------------------------------------------------|
A|---------------------------------------------------------------------------|
E|---------------------------------------------------------------------------|

Guitar II
e|---------------------------|
B|---------------------------|
G|---------------------------|
D|---------------------------|
A|---8------------5----------|
E|---6------------3----------|

Guitar III
e|---------------------------|
B|--------6--5--6------------|
G|-----------------7---------|
D|---------------------------|
A|---------------------------|
E|---------------------------|




Guitar I 
e|--------------------------------------|
B|----5-6-5-6-5-6-5-6-5-6-5-6-5---------|
G|--------------------------------------|
D|--------------------------------------|
A|--------------------------------------|
E|--------------------------------------|


Guitar II
e|--------------------------------------------------|
B|--------------------------------------------------|
G|----7-7-6-6-7-7-6-6-7-7-6-6-7-7-6-6---------------|
D|--------------------------------------------------|
A|--------------------------------------------------|
E|--------------------------------------------------|




Acoustic:
Guitar I
e|-------------0----------0----------0---------0---------0----------0-------|
B|----------3----------3-----------3---------3---------3----------3---------|
G|-------3-----------3-----------2---------2---------1----------1-----------|
D|----5-----------5-----------3---------3---------2----------2--------------|
A|--------------------------------------------------------------------------|
E|--------------------------------------------------------------------------|

e|------------5-------------|
B|----------6---6-----------|
G|-------7--------7---------|
D|----7-------------7-------|
A|--------------------------|
E|-5------------------------|



Guitar II
e|-------------------------------------------|
B|----/15--------/17--------/20-------20b----|
G|-------------------------------------------|
D|-------------------------------------------|
A|-------------------------------------------|
E|-------------------------------------------|


Play 2x (let ring)
e|-------------------------------------------|
B|-------6-------8-------11------10----------|
G|-------7-------7-------12-------7----------|
D|-----0---0---0---0---0----0---0---0--------|
A|-------------------------------------------|
E|-------------------------------------------|



Guitar I & II
e|--------------------------|
B|--------------------------|
G|--------------------------|
D|----8----5----7-----------|
A|----8----5----7-----------|
E|----6----3----5-----------|



Solo:
Guitar I
e|-----13br--12----10--12--13--12--10--12--10------10------------------------|
B|---------------------------------------------13-------13-------------------|
G|----------------------------------------------------------12--14b----------|
D|---------------------------------------------------------------------------|
A|---------------------------------------------------------------------------|
E|---------------------------------------------------------------------------|



e|----------------------------------------10--12--10--12--13--12--13--/15----|
B|------------------------10--13b------/13-----------------------------------|
G|------10--12b-------/12----------------------------------------------------|
D|---/12---------------------------------------------------------------------|
A|---------------------------------------------------------------------------|
E|---------------------------------------------------------------------------|



e|----10------12-----13-----15---------13--12--10--13--12--10--13--12--------|
B|----13b-----15b----16b----18b----------------------------------------------|
G|---------------------------------------------------------------------------|
D|---------------------------------------------------------------------------|
A|---------------------------------------------------------------------------|
E|---------------------------------------------------------------------------|


e|---15--13--12--15--13--12--15--13----17--15--13--17--15--13--17--15--13----|
B|---------------------------------------------------------------------------|
G|---------------------------------------------------------------------------|
D|---------------------------------------------------------------------------|
A|---------------------------------------------------------------------------|
E|---------------------------------------------------------------------------|


e|---17--15--13--20--17--15--20--17--15--20--17--15--20--17--15--20b---------|
B|---------------------------------------------------------------------------|
G|---------------------------------------------------------------------------|
D|---------------------------------------------------------------------------|
A|---------------------------------------------------------------------------|
E|---------------------------------------------------------------------------|



************************************

| /   slide up
| \   slide down
| h   hammer-on
| p   pull-off
| ~   vibrato
| +   harmonic
| x   Mute note
| b   Bend
| pb  Pre-bend
| br  Bend release
| pbr Pre-bend release
| brb Bend release bend

************************************





Comments


Popular Tesla tabs & chords
The Way It Is 1 Bass Tabs
Change In The Weather Tabs
Little Suzi Tabs
Love Song (Intro) Tabs
Modern Day Cowboy Tabs
Signs Tabs
Thank You Tabs
What You Give Tabs
What You Give 4 Tabs
Little Suzi Ukulele


Song lyrics



↑ Back to top | Tablatures and chords are parodies/interpretations of the original songs. You may use it for private study, scholarship, research or language learning purposes only
© 2014 AZChords.com Contact us | Privacy policy | DMCA | Add/correct tabs | Request tabs | Top 50 tabs