>
 >
Change In The Weather

Change In The Weather Guitar Tabs

Tesla - Change In The Weather chords, tabs, tablatures, lyrics

Guitar lessons | Add/correct | Request | Top 50 tabs Artists:  A B C D E F G H I J K L M N O P Q R S T U V W X Y Z 0-9

Change In The Weather Guitar Tabs – Tesla

CD, Sheet music, Poster

Do you like Change In The Weather? Share with your friends now
Tabs
--------------------------------------------------------------------------
--------------------------------------------------------------------------
                          Words and Music by: Tesla
  

Tuning:standard

Gtr.I  (electric)
Gtr.II (electric)

Intro

"Put this in your pipe and smoke it!"

Gtr.I&II  (1/2)                                (1/2)
e|---------/---|--------------------------------/--|
B|--------/----|-------------------------------/---|
G|-------/-----|------------------------------/----|
D|--2---/------|-------------------------2---/-----|
A|--0--/-------|-------------------------0--/------|
E|----3b-------|-0-0-0-0-0-0-0-0-0-0-0-0---3b------|

e|--------------------------------|
B|--------------------------------|
G|--------------------------0--2--|
D|--------------------------0--2--|
A|-----------------------------0--|
E|--0-0-0-0-0-0-0-0-0-0-0-0-3-----|

                                  (1/2)                              (Full)
e|---------------------------------/--|--------------------------------/--|
B|--------------------------------/---|-------------------------------/---|
G|-------------------------------/----|---------------------------0--/-2--|
D|--------------------------2---/-----|---------------------------0-/--2--|
A|--------------------------0--/------|----------------------------/---0--|
E|--0-0-0-0-0-0-0-0-0-0-0-0---3b------|-0-0-0-0-0-0-0-0-0-0-0-0---3b------|

w/wah
Gtr.I                          (Full) (Full) (Full)~~~~~~~~~~
e|------0-0-------------------|--/------/------/-------------|
B|--3/5-----3p2p0-------------|-7b--5--7b--5--7b--5----------|
G|----------------3p2p0-(0)h1-|------------------------------|
D|----------------------------|------------------------------|
A|----------------------------|------------------------------|
E|----------------------------|------------------------------|
Gtr.II                                                 (Full)|
e|----------------------------|--------------------------/---|
B|----------------------------|-------------------------/----|
G|----------------------------|-------------------2----/-----|
D|--------------------0-------|-2--2--2--2--2--2--2---/------|
A|----2-2-2-2---2---2---2-2---|-------------------0--/-------|
E|--0-------------------------|---------------------3b-------|
                           "we're...
Gtrs.I&II             ~~~~
e|-----------------------------|
B|--(5)--(5)\------------------|
G|-----------------------------|
D|-----------------------------|
A|--------------------2--------|
E|---0----0---0-3-0-0-----/12\-|

1st Verse

"younger...                   here...
Gtrs.I&II       (1/2)                     (1/2)
e|---------------/-\--------|--------------/-\-------|
B|--------------/---\-------|-------------/---\------|
G|-------------/--0--\------|------------/--0--\-----|
D|------------/-------\-----|-----------/-------\----|
A|--2--4p2---4b------4(4)-2-|-2--4p2---4b------4(4)--|
E|---------0----------------|--------0---------------|
    across...                 got...
                (1/2)                     (1/2)
e|---------------/-\--------|--------------/-\-------|
B|--------------/---\-------|-------------/---\------|
G|-------------/--0--\------|------------/--0--\-----|
D|------------/-------\-----|-----------/-------\----|
A|--2--4p2---4b------4(4)-2-|-2--4p2---4b------4(4)--|
E|---------0----------------|--------0---------------|

    Ready...         ready...                                      Oo, ya!  
                                        (Full)               (1/2)
e|----------------|-----------------------/---|---------------/-\--------|
B|-------3--------|-8--------10----------/----|--------------/---\-------|
G|--2----2--------|-7--------9-----2----/-----|-------------/--0--\------|
D|--2-------------|----------------2---/------|------------/-------\-----|
A|--0---------0-0-|------0-0-------0--/-------|---2-4p2---4b------4(4)-2-|
E|----------------|--------------0---3b-------|-0-------0----------------|

                        We will...                 big...
Gtrs.I&II        ~~~~                   ~~~~                   ~~   (Full)
e|-------------------------|----------------------|----------------------|
B|-------------------------|----------------------|----------------------|
G|-------------------------|----------------------|-5p4-5(5)p4-7-7\------|
D|---------------2---------|-5p4-5(5)p4-7---7p5-7-|-5----------7----2----|
A|-------------------------|-5----------7-------7-|-3----------5----0----|
E|--0--0-0-3-0-0-----/12\--|-3----------5-------5-|-------------------3b-|

                             and around...                                
      
Gtr.I                            (1/2)                              (Full)
e|---------------------------------/--|--------------------------------/-|
B|--------------------------------/---|-------------------------------/--|
G|-------------------------------/----|------------------------------/---|
D|--------------------------2---/-----|-------------------------2---/----|
A|--------------------------0--/------|-------------------------0--/-----|
E|--0-0-0-0-0-0-0-0-0-0-0-0---3b------|-0-0-0-0-0-0-0-0-0-0-0-0---3b-----|
Gtr.II                                                             (Full)|
e|------------------------------------|--------------------------------/-|
B|------------------------------------|-------------------------------/--|
G|------------------------------------|-------------------------2----/---|
D|--------------------------0---------|-2---2---2---2---2---2---2---/----|
A|-------2--2--2--2---2---2---2---2---|-------------------------0--/-----|
E|--0---------------------------------|---------------------------3b-----|


                          We're...
Gtrs.I&II             ~~~~
e|-----------------------------|
B|-----------------------------|
G|-----------------------------|
D|-----------------------------|
A|--------------------2--------|
E|---0----0--0-3-0-0-----/12\--|

2nd Verse

Children...                   seventies...                
Gtrs.I&II       (1/2)                     (1/2)
e|---------------/-\--------|--------------/-\-------|
B|--------------/---\-------|-------------/---\------|
G|-------------/--0--\------|------------/--0--\-----|
D|------------/-------\-----|-----------/-------\----|
A|--2--4p2---4b------4(4)-2-|-2--4p2---4b------4(4)--|
E|---------0----------------|--------0---------------|

    it...                    my, my...
                (1/2)                     (1/2)
e|---------------/-\--------|--------------/-\-------|
B|--------------/---\-------|-------------/---\------|
G|-------------/--0--\------|------------/--0--\-----|
D|------------/-------\-----|-----------/-------\----|
A|--2--4p2---4b------4(4)-2-|-2--4p2---4b------4(4)--|
E|---------0----------------|--------0---------------|

    Just...         is a...        century.___                          
                                        (Full)               (1/2)
e|----------------|-----------------------/---|---------------/-\--------|
B|-------3--------|-8--------10----------/----|--------------/---\-------|
G|--2----2--------|-7--------9-----2----/-----|-------------/--0--\------|
D|--2-------------|----------------2---/------|------------/-------\-----|
A|--0---------0-0-|------0-0-------0--/-------|---2-4p2---4b------4(4)-2-|
E|----------------|--------------0---3b-------|-0-------0----------------|


Pre-chours            Now...                        old...
Gtrs.I&II        ~~~~                   ~~~~                   ~~   (Full)
e|-------------------------|----------------------|----------------------|
B|-------------------------|----------------------|----------------------|
G|-------------------------|----------------------|-5p4-5(5)p4-7-7\------|
D|---------------2---------|-5p4-5(5)p4-7---7p5-7-|-5----------7----2----|
A|-------------------------|-5----------7-------7-|-3----------5----0----|
E|--0--0-0-3-0-0-----/12\--|-3----------5-------5-|-------------------3b-|

                            and around...                     Yes...
Gtr.I                            (1/2)                           
e|---------------------------------/--|--------------------------|
B|--------------------------------/---|--------------------------|
G|-------------------------------/----|--------------------------|
D|--------------------------2---/-----|--------------------------|
A|--------------------------0--/------|-----------------------2--|
E|--0-0-0-0-0-0-0-0-0-0-0-0---3b------|-0-0-0-0-0-0-0-0-0-0-0-0--|
Gtr.II                                                           |
e|------------------------------------|--------------------------|
B|------------------------------------|--------------------------|
G|------------------------------------|-----------------------2--|
D|--------------------------0---------|-2---2---2---2---2---2-0--|
A|-------2--2--2--2---2---2---2---2---|--------------------------|
E|--0---------------------------------|--------------------------|
    keep...                  old...
Gtrs.I&II        ~~~~                   ~~   (Full)
e|-------------------------|----------------------|
B|-------------------------|----------------------|
G|-------------------------|-5p4-5(5)p4-7-7\------|
D|--2-5p4-5(5)p4-7---7p5-7-|-5----------7----2----|
A|--2-5----------7-------7-|-3----------5----0----|
E|--0-3----------5-------5-|-------------------3b-|

                    A-turn-in'...                            I think...
Gtr.I              ~~~~
e|-------------------------|---------------------|-----------------------|
B|-------------------------|---------------------|-----------------------|
G|--10p9-10-(10)p9-12--12\-|----2--0-0-2p0-------|----2--0-0-2p0-------2-|
D|--10-------------12--12\-|---------------------|---------------2p0---0-|
A|--8--------------10--10\-|-0-------------0-3-3-|-0-----------------3---|
E|-------------------------|---------------------|-----------------------|


Chours
    ready...                                I think...
e|-------------------------|----------------------|
B|-------------------------|--------------------0-|
G|-------------------------|--------------------0-|
D|-----2----0----------2p0-|-2--2--4--4--2--2-----|
A|-------------4p2---------|-0--0--0--0--0--0-----|
E|--0--------------3h4-----|--------------------3-|

    ready...              scene_...
e|-------------------------|----------------------|
B|-------------------------|--------------------0-|
G|-------------------------|--------------------0-|
D|-----2----0----------2p0-|-2--2--4--4--2--2-----|
A|-------------4p2---------|-0--0--0--0--0--0-----|
E|--0--------------3h4-----|--------------------3-|
    ready...                                  ready...
e|-------------------------|----------------------|
B|-------------------------|--------------------0-|
G|-------------------------|--------------------0-|
D|-----2----0----------2p0-|-2--2--4--4--2--2-----|
A|-------------4p2---------|-0--0--0--0--0--0-----|
E|--0--------------3h4-----|--------------------3-|
                          for you...
e|-------------------------|----------------------|
B|-------------------------|--------------------0-|
G|-------------------------|--------------------0-|
D|-----2----0----------2p0-|-2--2--4--4--2--2-----|
A|-------------4p2---------|-0--0--0--0--0--0-----|
E|--0--------------3h4-----|--------------------3-|

 Ohh...
e|--7--|
B|--7--|
G|--7--|
D|--9--|
A|--7--|
E|-----|

Solo
     *(Full)~~~~~~~~~~~~~~~~~~~~~~*
e|-----/\---|---------------------\--------------------------------------|
B|---15b/---|-15-15-15-15-15-15-15-\----------12-12-12----12-12-12----12-|
G|---14b----|-14-14-14-14-14-14-15-(14)p12----12-12-12----12-12-12----12-|
D|----------|------------------------------14----------14----------14----|
A|----------|------------------------------------------------------------|
E|----------|------------------------------------------------------------|
     (Full)~~       (Full)         ~~~~~~
e|----/---------------/\---------------------|
B|--15b------15-12---/--\--------------------|
G|-----------------14b--(14)p12----12----12\-|
D|------------------------------14-----------|
A|-------------------------------------------|
E|-------------------------------------------|
    *w/wah
    (1/2)  (1/2)  (1/2)  (1/2)
e|---/------/------/------/------------|-0-0-0---0-----0-----0---------|
B|--7b---5-7b---5-7b---5-7b---5-5-(5)\-|-------3---3-2---2-0---0-2--3--|
G|-------------------------------------|-------------------------------|
D|-------------------------------------|-------------------------------|
A|-------------------------------------|-------------------------------|
E|-------------------------------------|-------------------------------|
                                                        (Full)
e|--------------------------------------------------------/---12----12-|
B|-------------------------------------------------------/-------12----|
G|-----------------------------------14p12----12----12-14b-------------|
D|-----------12----12-14-12----12-14-------14----14--------------------|
A|--12-13-14----14----------14-----------------------------------------|
E|---------------------------------------------------------------------|

e|-----------------------------------------------------------0-|--(0)--|
B|--15p12----12-12-------------------------------------------0-|--(0)--|
G|--------14-------12-14p12----12------------------------------|-------|
D|--------------------------14----14-12-14p12------------------|-------|
A|--------------------------------------------14-12-10---------|-------|
E|-----------------------------------------------------12-0----|-------|

e|----------------------------------|
B|--3-5-0-5-5-0-5-5-0-5-5-0-5-5-0-0-|
G|----------------------------------|
D|----------------------------------|
A|----------------------------------|
E|----------------------------------|

e|--3p2p0-------------3p2p0-------------------------|
B|--------3p2p0-------------3p2p0-------3p2p0-------|
G|--------------2p2p0-------------3p2p0-------3p2p0-|
D|--------------------------------------------------|
A|--------------------------------------------------|
E|--------------------------------------------------|

Gtr.I     ~~~    +(Full)       (Full) (Full)  (Full)(Full)
e|-----------------/-------|----/------/------/------/---------|
B|----------------/--------|---/-15---/-15---/-15---/-15-------|
G|--2----(2)-0-2-2b--2-2-0-|-14b----14b----14b----14b----14-12-|
D|-------------------------|-----------------------------------|
A|-------------------------|-----------------------------------|
E|-------------------------|-----------------------------------|
Gtr.II                                                         |
e|-------------------------|-----------------------------------|
B|--2--------2-------------|-0-------------2----------------8--|
G|--2--------2-------------|----0----------2-------------------|
D|--2--------2-------------|-------0-------2----------/9-------|
A|--0--------0-------------|---------------0-------------------|
E|-------------------------|-----------------------------------|

Gtr.I(Full)~~~~      (Full)~~~~
e|----/--------12------/-------12-----------|
B|--15b--(15)-----12-15b--(15)----12-15-12--|
G|------------------------------------------|
D|------------------------------------------|
A|------------------------------------------|
E|------------------------------------------|
Gtr.II                                      |                            
e|------------------------------------------|
B|--9----------------9----------------------|
G|--9----------------9----------------------|
D|--9----------------9----------------9-----|
A|--7----------------7----------------------|
E|------------------------------------------|

Gtr.I(Full)~~~~      (Full)~~~~~~~~~~~
e|----/--------12------/--------------------|
B|--15b--(15)-----12-15b--(15)-------(15)\--|
G|------------------------------------------|
D|------------------------------------------|
A|------------------------------------------|
E|------------------------------------------|
Gtr.I                                       |
e|------------------------------------------|
B|--7----------------9----------------------|
G|-----7-------------9----------------------|
D|--------7----------9----------------------|
A|-------------------7------------12\-------|
E|------------------------------------------|

Gtr.I (Full)  (Full)  (Full)
e|-----15b-12---/-------/------12----------------|
B|------------15b-12---/----15----12-15----12----|
G|-------------------14b-12-------------14----12-|
D|-----------------------------------------------|
A|-----------------------------------------------|
E|-----------------------------------------------|
Gtr.II                                           |
e|-----------------------------------------------|
B|-----2-------------2---------------------------|
G|-----2-------------2---------------------------|
D|-----2-------------2---------------------------|
A|-----0-------------0---------------------------|
E|-----------------------------------------------|

Gtr.I~~~~          ~~~~
e|--------------------------|
B|-------12-----------------|
G|----------12--------------|
D|--14---------14-(14)--14\-|
A|--------------------------|
E|--------------------------|
Gtr.II                      |    
e|--------------------------|
B|--0----------2------------|
G|-----0-------2------------|
D|--------0----2------------|
A|-------------0------------|
E|--------------------------|

Gtrs.I&II                ~~~                      ~~~
e|--------------------------|------------------------|
B|--------------------------|------------------------|
G|-----3-----3-----3-----3--|----3-----3-----3----3--|
D|-----2-----2-----2-----2--|----2-----2-----2----2--|
A|--x-----x-----x-----x-----|-x-----x-----x-----x----|
E|--------------------------|------------------------|



Chours
    ready...                                I think...
e|-------------------------|----------------------|
B|-------------------------|--------------------0-|
G|-------------------------|--------------------0-|
D|-----2----0----------2p0-|-2--2--4--4--2--2-----|
A|-------------4p2---------|-0--0--0--0--0--0-----|
E|--0--------------3h4-----|--------------------3-|

    ready...              scene_...
e|-------------------------|----------------------|
B|-------------------------|--------------------0-|
G|-------------------------|--------------------0-|
D|-----2----0----------2p0-|-2--2--4--4--2--2-----|
A|-------------4p2---------|-0--0--0--0--0--0-----|
E|--0--------------3h4-----|--------------------3-|
    ready...                                  ready...
e|-------------------------|----------------------|
B|-------------------------|--------------------0-|
G|-------------------------|--------------------0-|
D|-----2----0----------2p0-|-2--2--4--4--2--2-----|
A|-------------4p2---------|-0--0--0--0--0--0-----|
E|--0--------------3h4-----|--------------------3-|
                          for you...
e|-------------------------|----------------------|
B|-------------------------|--------------------0-|
G|-------------------------|--------------------0-|
D|-----2----0----------2p0-|-2--2--4--4--2--2-----|
A|-------------4p2---------|-0--0--0--0--0--0-----|
E|--0--------------3h4-----|--------------------3-|



The Outro solo is played over the chorus



Outro solo            
Gtr.I       (1/2)(1/2)          (1/2)(1/2)          (1/2)(1/2)
e|-----------/----/---|----------/----/---|----------/----/----|
B|--(3)----/8b---8b---|-(3)----/8b---8b---|-(3)----/8b---8b----|
G|--(2)---------------|-(2)---------------|-(2)----------------|
D|--------------------|-------------------|--------------------|
A|--------------------|-------------------|--------------------|
E|--------------------|-------------------|--------------------|


     
e|------12----10---9---7-|----5---3---2p0---0-|-----12----10---9---7--|
B|-----------------------|----------------2---|-----------------------|
G|--/13----11----9---7---|-/6---4---2---------|-/13----11----9---7----|
D|-----------------------|--------------------|-----------------------|
A|-----------------------|--------------------|-----------------------|
E|-----------------------|--------------------|-----------------------|

e|------12----10-----9-------|----5---3---2p0---0--|
B|-------------------------7-|----------------2----|
G|--/13----11----9-9---9\7---|-/6---4---2----------|
D|---------------------------|---------------------|
A|---------------------------|---------------------|
E|---------------------------|---------------------|
     (1/2)   (1/2)   (1/2)   (1/2)   (1/2)
e|----/--12---/--12---/--12---/--12---/-----|
B|--14b-----14b-----14b-----14b-----14b--12-|
G|------------------------------------------|
D|------------------------------------------|
A|------------------------------------------|
E|------------------------------------------|
    (Full)                          ~~~                     ~~~   (Full)
e|----/--------------------------------|----------------------------/---|
B|--14b-14-14-(14)p12----12------12----|-12--12----12----12-------15b---|
G|--------------------14----(14)----14-|-12--12----12----12----12-------|
D|-------------------------------------|--------14----14----14----------|
A|-------------------------------------|--------------------------------|
E|-------------------------------------|--------------------------------|
                       (Full)~~~
e|-------15--------------/------------|
B|--(15)----15-(15)p12-15b------(15)\-|
G|------------------------------------|
D|------------------------------------|
A|------------------------------------|
E|------------------------------------|
       
                         ~~~                      ~~~
e|--------------------------|------------------------|
B|--------------------------|------------------------|
G|-----3-----3-----3-----3--|----3-----3-----3----3--|
D|-----2-----2-----2-----2--|----2-----2-----2----2--|
A|--x-----x-----x-----x-----|-x-----x-----x-----x----|
E|--------------------------|------------------------|

        I'm ready!_                     Yeah!"
                 (1/2)
e|----------------/---------|------------------------|
B|--/8/(3)-------8b--8\-----|------------------------|
G|-----(2)------------------|------------------------|
D|--------------------------|------------------------|
A|--------------------------|------------------------|
E|--------------------------|------------------------|




| /   slide up
| \   slide down
| h   hammer-on
| p   pull-off
| ~   vibrato
| +   harmonic
| x   Mute note
| *-* hold bend
==========================================================================
                      Learn it. Rate it. Play it.
==========================================================================

Lyrics:

We're the younger generation,
and we're here to face the day.
Heard all across the nation,
and we got so much to say.
Ready for a change,
ready for a change in the weather. Ooh, yeah!
We will keep the fire burnin'
And this big wheel will keep spinnin'
'round and 'round, and around. Yeah!

We're the children of the sixties.
Watched the seventies go bye.
Now, we made it through the eighties.
My, my how time does fly
Just around the corner is a brand new century

Now we'll keep the fire burnin'
And this old world will keep spinnin'
'round and 'round, and around.

Yes we'll keep the fire burnin'
And this old world will keep turnin'
'round and 'round, and around.
A-turnin' 'round and 'round, yeah.

I think we're ready for a change in the weather.
I think we're ready for a change of scene.
Ready for a change in the weather.
I'm ready for a change for you and
me. Ah yeah, yeah. Ooh.

Really do, I think we're ready for
a change in the weather.
I think we're ready for a change of scene.
Ready for a change in the weather.
I'm ready for a change, change,
change for you and me.

I think we're ready for a change in the weather.
I think we're ready for a change of scene.
Ready for a change in the weather.
I'm ready for a change for you and me!

Just around the corner, oh, is a brand new century.
I'm waitin'.
I'm ready!
(We're ready!)
Yeah!





Comments


Popular Tesla tabs & chords
All Of Me Tabs
Government Personnel Tabs
Little Suzi Intro Tabs
Love Song Intro 1 Tabs
Love SongIntro 3 Tabs
Need Your Lovin Tabs
One Day At A Time Tabs
Signs Live Tabs
What You Give 1 Tabs
Wonderful World Tabs


Song lyrics



↑ Back to top | Tablatures and chords are parodies/interpretations of the original songs. You may use it for private study, scholarship, research or language learning purposes only
© 2014 AZChords.com Contact us | Privacy policy | DMCA | Add/correct tabs | Request tabs | Top 50 tabs