>
 >
All Of Me

All Of Me Guitar Tabs

Tesla - All Of Me chords, tabs, tablatures, lyrics

Guitar lessons | Add/correct | Request | Top 50 tabs Artists:  A B C D E F G H I J K L M N O P Q R S T U V W X Y Z 0-9

All Of Me Guitar Tabs – Tesla

CD, Sheet music, Poster

Do you like All Of Me? Share with your friends now
Tabs


----------------------------------------------------
Tune: Drop C#

 intro & Verse
|------------------------------------------------------|
|------------------------------------------------------|
|------------------------------------------------------|
|-0-0---------0-0---------0-0------0-2-2-2-0-3-3-3-----|
|-0-0---------0-0---------0-0------0-2-2-2-0-3-3-3-----|
|-0-0---------0-0---------0-0------0-2-2-2-0-3-3-3-----|


Pre Chorous
|-----------------------------------------------------------------|
|-----------------------------------------------------------------|
|-----------------------------------------------------------------|
|-7---7-7-7-7-7-7-7-7-7-7-7-8-8-8-5---5-5-5-5-5-5-5-5-5-5-5-8-8-8-|
|-7---7-7-7-7-7-7-7-7-7-7-7-8-8-8-5---5-5-5-5-5-5-5-5-5-5-5-8-8-8-|
|-7---7-7-7-7-7-7-7-7-7-7-7-8-8-8-5---5-5-5-5-5-5-5-5-5-5-5-8-8-8-|

|-------------------------------------------------------------------|
|-------------------------------------------------------------------|
|---------------------------------5---5-5-5-5-5-5-------------------|
|-7---7-7-7-7-7-7-7-7-7-7-7-8---x-5---5-5-5-5-5-5-5-5-5-5-5-5-5-5-5-|
|-7---7-7-7-7-7-7-7-7-7-7-7-8---x-3---3-3-3-3-3-3-5-5-5-5-5-5-5-5-5-|
|-7---7-7-7-7-7-7-7-7-7-7-7-8---x-----------------5-5-5-5-5-5-5-5-5-|


Chorous
 Gtr. 1
|--------------------------------------------------------------|
|--------------------------------------------------------------|
|------------------------------------(play x2)-----------------|
|-0-------3--------10---------8--------------------------------|
|-0-------3--------10---------8--------------------------------|
|-0-------3--------10---------8--------------------------------|

Gtr. 2
|-------------------------------------------------------------------|
|-6-5-6---6-5-6---6-5-6---6-5-6---8-6-8---8-6-8---6-5-6---6-5-6-6---|
|-------------------------------------------------------------------|
|-------------------------------------------------------------------|
|-------------------------------------------------------------------|
|-------------------------------------------------------------------|


Play verse 2 with this
|--------------------------------------------------------------|
|-10----10-----10----10-----10----10---------------------------|
|-10----10-----10----10-----10----10--......-------------------|
|----12-----------12-----------12------------------------------|
|--------------------------------------------------------------|
|--------------------------------------------------------------|


Bridge
 Gtr. 1
|-----------------------------------------------------------------|
|-----------------------------------------------------------------|
|-----------------------------------------------------------------|
|-----------------------------------------5-5-5-5-6-6-6-6-7-7-7-7-|
|-5-5-5-5-6-6-6-6-7-7-7-7-8-8-8-8-9-9-9-9-------------------------|
|-----------------------------------------------------------------|
|Gtr. 2
|-----------------------------------------------------------------|
|-----------------------------------------------------------------|
|-----------------------------------------------------------------|
|-----------------------------------------------------------------|
|-5-5-5-5-4-4-4-4-3-3-3-3-2-2-2-2---------------------------------|
|---------------------------------8-8-8-8-7-7-7-7-6-6-6-6-5-5-5-5-|


Solo
 Gtr. 1
|-----------------------------------------------------------------|
|-----------------------------------------------------------------|
|-----------------------------------------------------------------|
|-8------0------8------0------8------5------8------10---11--------|
|-8------0------8------0------8------5------8------10---11--------|
|-8------0------8------0------8------5------8------10---11--------|


 Gtr. 2
|----------12hb----13fb--------|
|-13fb-------------------------|
|------------------------------|
|------------------------------|
|------------------------------|
|------------------------------|

|-------------13-17p15p13-17p15p13-17-15-13-12-15-13-12----13-12--|
|----------15-------------------------------------------15--------|
|-------14--------------------------------------------------------|
|-----x-----------------------------------------------------------|
|---x-------------------------------------------------------------|
|-x---------------------------------------------------------------|

|------------------------------------------|
|-15-13-15-13-------13fb----------11-------|
|-------------14-12------------14----------|
|------------------------------------------|
|------------------------------------------|
|------------------------------------------|

|-----------------------------------------------------------------|
|-----------------------------------------------------------------|
|-14-12-14-12-10-9-10-9-7-9-5-7-5-7-7-----5-----------------------|
|-------------------------------------------5-3-5-3-5fb-----------|
|-----------------------------------------------------------------|
|-----------------------------------------------------------------|

|---------------------------------------------|
|---------------------------------------------|
|---------------------------------------------|
|-0h3h5-0h2h3-0h3h5-0h5h7-0h2h3-0h2h3-0h3h5---|
|---------------------------------------------|
|---------------------------------------------|

|--------------------------------------------|
|--------------------------------------------|
|------------------------------------0h7h9---|
|-05h7-0h8h10-0h10h12-0h8h10-0h10h12---------|
|--------------------------------------------|
|--------------------------------------------|

|------------------------------------------------------------------|
|-----------------------------------------------------------15-----|
|-0h5h7-0h7h9-0h9h10-0h10h12-0h9h10-0h10h12-0h15h17-0h17h19--------|
|------------------------------------------------------------------|
|------------------------------------------------------------------|
|------------------------------------------------------------------|

|----12-13-15-17-20-17-17-15-13---------|
|-15----------------------------15------|
|---------------------------------------|
|---------------------------------------|
|---------------------------------------|
|---------------------------------------|

|-------------15-20p15----------15-20p15----------15-20p15--------|
|----------17----------17----17----------17----17----------17-----|
|-------16----------------16----------------16--------------------|
|-----x-----------------------------------------------------------|
|---x-------------------------------------------------------------|
|-x---------------------------------------------------------------|

|-------17-21p17----------17-21p17----------21p17----------17------|
|----20----------20----20----------20----20-------20----20---------|
|-19----------------19----------------19-------------19------------|
|------------------------------------------------------------------|
|------------------------------------------------------------------|
|------------------------------------------------------------------|

|-21p17----21-------|
|-------20----------|
|-------------------|
|-------------------|
|-------------------|
|-------------------|





Comments


Popular Tesla tabs & chords
Modern Day Cowboy Bass Tabs
Signs Live Chords
Freedom Slaves Intro Tabs
Gettin Better (Solo) Tabs
Getting Better Tabs
Heaven Nine ElevenIntro Tabs
Signs 1 Tabs
What You Give 1 Tabs
Games People Play Ukulele
Love Song Ukulele


Song lyrics



↑ Back to top | Tablatures and chords are parodies/interpretations of the original songs. You may use it for private study, scholarship, research or language learning purposes only
© 2014 AZChords.com Contact us | Privacy policy | DMCA | Add/correct tabs | Request tabs | Top 50 tabs