» » »

Tinker Taylor Tabs (ver.2)

Artists:  A B C D E F G H I J K L M N O P Q R S T U V W X Y Z # 

Tinker Taylor Tabs (ver.2)

Terry Reid
Rating:
0/5 (0 votes)

Hard to play? Try these video lessons and learn fast.
                ------------------------------------------------------------------------------------------------

                                   Terry Reid - Tinker Taylor

------------------------------------------------------------------------------------------------


  INTRO RIFF                              & RIFF 1

e|--------------------------------------------------------------------------------|
B|-----------------3---2-------5-3h5p3-2--------------------3---2-------5-3h5p3-2-|
G|-----2---1----------------------------------2--1-1------------------------------|
D|--------------------------------------------------------------------------------|
A|-------------------------0-0--------------------------------------0-0-----------|
E|-0-----------0---------------------------0-0-0--------0-------------------------|
  (E)             (A)                     (E)              (A)


  VERSE RIFF

e|---------------------------------------3------2-2h3p2-|
B|-------------------------------------0-0-0--3-3-3-----|
G|-------------------------------------0-0-0--2-2-2-----|
D|-----------------------------------0-0---0--0---0-----|
A|-2-2-2-2-2-2-2-2-2-2-2-2-2-2-2-2-2-2------------------|
E|-0-0-0-0-0-0-0-0-0-0-0-0-0-0-0-0-0-3------------------|
   E                                 G     D


INTRO RIFF x1

RIFF 1 x7


E5                               G          D    RIFF 1 x2
Tinker, tailor, soldier sail me away on the open tide

E5                                   G           D    RIFF 1 x2
Blowaway, stowaway, hitch a ride, go away to the Argentine


A5                        B5
Why is it that we're just looking for someone

G         D       E
Trying to see the light

A5                          B5                           G [let ring]
Never without being able to live with someone we're just trying to realise


RIFF 1 x4


E5
I never thought of you, never thought that life was so true

G        D        RIFF 1 x2
Never so seen the light

E5                                                         G        D       RIFF 1 x2
Horses just brothers, uncles, cousins never lovers thereby ever got hit the tie


A5                        B5
Why is it that we're just looking for someone

  G        D       E
I tried to see the light


A5                         B5
Never just a looking never finding no one

           G [let ring]
We're just trying to realise and why, yeah


RIFF 1 x12 [fading out]


(additional lyrics in outro)

Woh oh oh oh

Tinker, tailor

Let me make her

No one save her

and all I see

Wo oh ah rolls up in the heart to me
            
Hard to play? Try these video lessons and learn fast. | Correct




comments powered by Disqus
↑ Back to top | Tablatures and chords are parodies/interpretations of the original songs. You may use it for private study, scholarship, research or language learning purposes only