» » »

Dancing Girl Tabs (ver.1)

Artists:  A B C D E F G H I J K L M N O P Q R S T U V W X Y Z # 

Dancing Girl Tabs (ver.1)

Terry Callier
Rating:
5/5 (1 vote)

Hard to play? Try these video lessons and learn fast.
                Terry Callier
Dancing Girl Tab

By Charlie Giaretta
Username: CharlieGiaretta

I made this tab because there wasn't any online. Sorry if it's a bit basic, i'm still 
relatively new to playing guitar. Very good song though, also very easy to play.

-----------------------------------------------------------------------------
INTRO
-----------------------------------------------------------------------------

e|-------0---------------|
B|-----4---4---0-------4-|
G|---6-------6-----6-----|
D|-6-------------6---6---| X4
A|-----------------------|
E|-----------------------|

e|-------0---------0-----|
B|-----2---2---2-------2-|
G|---4-------4---4---4---|
D|-4---------------------| x2
A|-----------------------|
E|-----------------------|

These 2 riffs are repeated through-out the Intro until the verse kicks in

-----------------------------------------------------------------------------
VERSE
-----------------------------------------------------------------------------

e|-----------|
B|-----4---4-|
G|---6-6-6---|
D|-6---------| x2
A|-----------|
E|-----------|


e|-----------|
B|-----0---0-|
G|---6-6-6---|
D|-6---------| x2
A|-----------|
E|-----------|

Repeat this into the strumming part

At 3:28, Strum these chords along with the music.

e|-0-|
B|-4-|
G|-6-|
D|-6-|
A|---|
E|---|

e|-0-|
B|-0-|
G|-6-|
D|-6-|
A|-0-|
E|---|

Around 5:25 into the song, he starts strumming different chords

e|-0-|
B|-4-|
G|-6-|
D|-6-|
A|---|
E|---|

e|-0-|
B|-2-|
G|-4-|
D|-4-|
A|---|
E|---|

And then this short riff before the intro is repeated at the end of the song:

e|-----------4-----4-|
B|-----0-------------|
G|---6-----6-----6---|
D|-6-----6-----6-----| x2
A|-------------------|
E|-------------------|

Enjoy playing the song!
            
Hard to play? Try these video lessons and learn fast. | Correct




comments powered by Disqus
↑ Back to top | Tablatures and chords are parodies/interpretations of the original songs. You may use it for private study, scholarship, research or language learning purposes only