>
 >
Vahva Kuin Metalli

Vahva Kuin Metalli Guitar Tabs

Terasbetoni - Vahva Kuin Metalli chords, tabs, tablatures, lyrics

Guitar lessons | Add/correct | Request | Top 50 tabs Artists:  A B C D E F G H I J K L M N O P Q R S T U V W X Y Z 0-9

Vahva Kuin Metalli Guitar Tabs – Terasbetoni

CD, Sheet music, Poster

Do you like Vahva Kuin Metalli? Share with your friends now
Tabs
Terδsbetoni - Vahva Kuin Metalli


------------------------------------

h   - hammer-on
p   - pull-off
^   - bend
~   - vibrato
/\  - slide
X\\ - pick scrape
<3> - harmonic
X   - mute
•   - palm mute

Tuning is: Standard (EADGBe)

INTRO (00:00)

e|-----------------------------------------------------|
B|-----------------------------------------------------|
G|-----------------------------------------------------|
D|-7------------------2--3------------------2----------|
A|-5-5-5-5-5-5-5-5-5--0--1-1-1-1-1-1-1-1-1--0----------|
E|-----------------------------------------------------|
     • • • • • • • •       • • • • • • • •
e|-------------------------------------------|
B|-------------------------------------------| *Note: Not the exact
G|-------------------------------------------|        number of strokes*
D|-7------------------2----------------------|
A|-5-5-5-5-5-5-5-5-5--0--3-------------------|
E|-----------------------1-1-1-1-1--2-2-2-2--|
     • • • • • • • •       • • • •  • • • •
e|-----------------------------------------------|
B|-----------------------------------------------|
G|-----------------------------------------------|
D|----------------------------10--10---10--10-10--|
A|----------------------------10--10---10--10-10--|
E|-3-3-3-3--5-5-5-5--6-6-6-6--8---8----8---8--8---|
   • • • •  • • • •  • • • •

CHORUS (00:27)

e|------------------------------|
B|------------------------------|
G|------------------------------|
D|-0----------------------------|x2
A|-0--7\5-5--7\3-3--5\2--3-2-2--|
E|----5\3-3--5\1-1--3\0--1-0-0--|
                         • • • 

VERSE (00:34)

e|-----------------------------------------------------------|
B|-----------------------------------------------------------|
G|-7----7--2--3----3--2--7----7--2---------------------------|
D|-7----7--2--3----3--2--7----7--2--3--4---------------------|
A|-5----5--0--1----1--0--5----5--0--3--4---------------------|
E|----------------------------------1--2--3-3-3-3--5-5-5-5---|
                                          • • • •  • • • •
e|-------------------------------|
B|-------------------------------|
G|-------------------------------|
D|----------10--10---10--10-10---|
A|----------10--10---10--10-10---|
E|-6-6-6-6--8---8----8---8--8----|
   • • • • 

CHORUS (00:58)

VERSE (01:14)

SOLO (01:40)

e|------------------------------------------|
B|------------------------------------------|
G|------------7----7-9-10-9-7---------------|
D|----------7-----------------10-8-7--------|
A|-5--7--8---------------------------10-8---|
E|------------------------------------------|

e|-------------------------------------------|
B|----10-----------10-------13----------13\--|
G|-10----10-----10----10-------12----12------|
D|-----------8--------------------10---------|
A|-------------------------------------------|
E|-------------------------------------------|

e|----------------------------------|
B|----------------------------------|
G|-/7-5--7-----5---5--7------5--7---|
D|-/7-5--7--7--5---5--7--7---5--7---|
A|----------7------------7----------|
E|----------------------------------|

e|-----------------------------------------------|
B|----------------888------------888-10101010\---|
G|-777-999-101010-----999-101010-----------------|
D|-----------------------------------------------|
A|-----------------------------------------------|
E|-----------------------------------------------|
   ••• ••• • • •  ••• ••• • • •  ••• • • •
e|--9-10-12-9--12-9-13\----|
B|-------------------------|
G|-------------------------|
D|-------------------------|
A|-------------------------|
E|-------------------------|


RHYTHM GUITAR UNDERNEATH SOLO

e|------------------------------------------------|
B|------------------------------------------------|
G|-3--5---7--5--7--2--5--5--7---2--5--7----3--5---|
D|-3--5---7--5--7--2--5--5--7---2--5--7----3--5---|
A|-1--3---5--3--5--0--3--3--5---0--3--5----1--3---|
E|------------------------------------------------|
                                       

e|----------------------------------------------|
B|----------------------------------------------|
G|----------------------------------------------|
D|------------------7--7p5---5-7--3-5--2-3-3-3--|
A|-0-0-0-0-0-0-0-0--7--7p5-0-5-7--3-5--2-3-3-3--|
E|----------------------------------------------|
   • • • • • • • •         • 

e|------------------------------|
B|------------------------------|
G|------------------------------|
D|-0----------------------------|x2
A|-0--7\5-5--7\3-3--5\2--3-2-2--|
E|----5\3-3--5\1-1--3\0--1-0-0--|
                         • • •

VERSE (02:07)

CHORUS (02:36)


And thats it, I hope its accurate, have fun!





Comments


Popular Terasbetoni tabs & chords
Missa Miehet Ratsastaa Chords
Metallitotuus Tabs
Orjatar 1 Tabs
Silma Silmasta Tabs
Taivas Ly Tulta 3 Tabs
Taivas Ly Tulta Intro Tabs
Teraksen Varjo 1 Tabs
Tuonelaan Tabs
Voittamaton Tabs
Missa Miehet Ratsastaa Ukulele


Song lyrics



↑ Back to top | Tablatures and chords are parodies/interpretations of the original songs. You may use it for private study, scholarship, research or language learning purposes only
© 2014 AZChords.com Contact us | Privacy policy | DMCA | Add/correct tabs | Request tabs | Top 50 tabs