>
 >
Terasbetoni

Terasbetoni Guitar Tabs

Terasbetoni - Terasbetoni chords, tabs, tablatures, lyrics

Guitar lessons | Add/correct | Request | Top 50 tabs Artists:  A B C D E F G H I J K L M N O P Q R S T U V W X Y Z 0-9

Terasbetoni Guitar Tabs – Terasbetoni

CD, Sheet music, Poster

Do you like Terasbetoni? Share with your friends now
Tabs
Terδsbetoni - Terδsbetoni


------------------------------

h   - hammer-on
p   - pull-off
^   - bend
~   - vibrato
/\  - slide
X\\ - pick scrape
<3> - harmonic
X   - mute
•   - palm mute

Tuning is: Standard (EADGBe)

INTRO (00:00)

e|--------------------------------------|
B|--------------------------------------|
G|--------------------------------------|
D|-------2--------2--------4-5----------|
A|-------2--------2--------4-5----------|
E|-0-0-0-0--0-0-0-0--0-0-0-2-3----------|
 | • • •    • • •    • • • 
 |
e|--------------------------------------|
B|--------------------------------------|
G|-------9--------9--------11-12--------|
D|-------9--------9--------11-12--------|
A|-------7--------7--------9--10--------|
E|-0-0-0----0-0-0----0-0-0--------------|
   • • •    • • •    • • •

e|--------------------------------------|
B|--------------------------------------|
G|--------------------------------------|
D|-------2--------2---------7--9--5-----|
A|-------2--------2---------7--9--5-----|
E|-0-0-0-0--0-0-0-0--0-0-0--5--7--3-----|
 | • • •    • • •    • • •
 |
e|--------------------------------------|
B|--------------------------------------|
G|-------9--------9---------14--16--12--|
D|-------9--------9---------14--16--12--|
A|-------7--------7---------12--14--10--|
E|-0-0-0----0-0-0----0-0-0--------------|
   • • •    • • •    • • •

e|-----------------------------------------------|
B|-----------------------------------------------|
G|-----------------------------------------------|
D|-------2--------2---------7---9---5---10---7---|
A|-------2--------2---------7---9---5---10---7---|
E|-0-0-0-0--0-0-0-0--0-0-0--5---7---3----8---5---|
 | • • •    • • •    • • •
 |
e|-----------------------------------------------|
B|-----------------------------------------------|
G|-------9--------9---------14--16--12--17---14--|
D|-------9--------9---------14--16--12--17---14--|
A|-------7--------7---------12--14--10--15---12--|
E|-0-0-0----0-0-0----0-0-0-----------------------|
   • • •    • • •    • • •

RIFF A (00:20)

e|--------------------------------------------------------------|
B|--------------------------------------------------------------|
G|-----------------------------7------------------5--4--2-------|
D|-9--7--5--2---------9--7--5--7---------9--7--5--5--4--2--5--4-|
A|-9--7--5--2---------9--7--5--5---------9--7--5--3--2--0--5--4-|
E|-7--5--3--0--0-0-0--7--5--3-----0-0-0--7--5--3-----------3--2-|
               • • •              • • •

ENDING

e|-----------------------------------------|
B|-----------------------------------------|
G|-----------------5--4--2-----------------|
D|--------9--7--5--5--4--2--5--4---9----2--|
A|--------9--7--5--3--2--0--5--4---9----2--|
E|-0-0-0--7--5--3-----------3--2---7----0--|
   • • •

VERSE (01:00)

e|---------------------------------------------|
B|---------------------------------------------|
G|-9--7----------------------------------------|
D|-9--7----------------------------------------|
A|-7--5--3-3-3-3-3-3--5-5-5-5-5-5--7-7-7-7-7-7-|
E|---------------------------------------------|
         • • • • • •  • • • • • •  • • • • • •

e|-----------------------------------------------------------------|
B|-----------------------------------------------------------------|
G|-----------------------------------------------------------------|
D|-----------------------------------------------------------------|
A|-0-0-0-0-0-0--3-3-3-3-3-3--5-5-5-5-5-5--0-0-0-0-0-0--0-0-0-2-2-2-|
E|-----------------------------------------------------------------|
   • • • • • •  • • • • • •  • • • • • •  • • • • • •  • • • • • • 

e|-----------------------------------------------------|
B|-----------------------------------------------------|
G|-----------------------------------------------------|
D|-----------------------------------------------------|
A|-3-3-3-3-3-3--5-5-5-5-5-5--7-7-7-7-7-7--0-0-0-0-0-0--|
E|-----------------------------------------------------|
   • • • • • •  • • • • • •  • • • • • •  • • • • • •  

e|---------------------------------|
B|---------------------------------|
G|---------------------------------|
D|------------------------------4--|
A|-3-3-3--2-2-2--0-0-0----------4--|
E|----------------------3-3-3---2--|
   • • •  • • •  • • •  • • •

CHORUS (01:18)

e|---------------------------------------|
B|---------------------------------------|
G|---------------7-------------5---7-----|
D|-9--7--5--2----7----9--7--5--5---7-----| x2
A|-9--7--5--2----5----9--7--5--3---5-----|
E|-7--5--3--0---------7--5--3------------|

e|----------------------------------------------------------------|
B|----------------------------------------------------------------|
G|-----------------------------7------------------5--4--2---------|
D|-9--7--5--2---------9--7--5--7---------9--7--5--5--4--2--5--4---|
A|-9--7--5--2---------9--7--5--5---------9--7--5--3--2--0--5--4---|
E|-7--5--3--0--0-0-0--7--5--3-----0-0-0--7--5--3-----------3--2---|
               • • •              • • •

ENDING 

e|-----------------------------------|
B|-----------------------------------|
G|----------------------------7--7---|
D|-9--------------------------7--7---|
A|-9--------------------------5--5---|
E|-7-0-0-0-0-0-0-0-0-0-0-0-0---------|
     • • • • • • • • • • • • 

2 VERSE (01:51)

e|---------------------------------------| Note: It's not the exact 
B|---------------------------------------|       number of strokes.
G|---------------------------------------|
D|--------------7-7-7-7-7-7--------------| x2
A|-2-2-2-2-2-2--5-5-5-5-5-5--2-2-2-2-2-2-|
E|-0-0-0-0-0-0---------------0-0-0-0-0-0-|
   • • • • • •  • • • • • •  • • • • • •

e|----------------------------------------------------------------|
B|----------------------------------------------------------------|
G|-9--7---5--------7--------9--------2--------5-------------------|
D|-9--7---5--------7--------9--------2--------5--------5----------|
A|-7--5---3-3-3-3--5-5-5-5--7-7-7-7--0-0-0-0--3-3-3-3--5----------|
E|-----------------------------------------------------3-3-3-3----|
            • • •    • • •    • • •    • • •    • • •    • • •

e|---------------------|
B|---------------------|
G|-7---------2--4--5---|
D|-7---------2--4--5---| 
A|-5-5-5-5---0--2--3---|
E|---------------------|
     • • •

e|--------------------------------------------------------------------|
B|--------------------------------------------------------------------|
G|-5--------7--------9--------2---------------------------------------|
D|-5--------7--------9--------2------------------------------------4--|
A|-3-3-3-3--5-5-5-5--7-7-7-7--0-0-0-0--3-3-3--2-2-2--0-0-0---------4--|
E|----------------------------------------------------------3-3-3--2--|
     • • •    • • •    • • •    • • •  • • •  • • •  • • •  • • •

CHORUS (02:26)

INTRO RIFF (02:54)

SOLO (03:11)

e|--------------------------------------------|
B|--------------------------------------------|
G|--9~--9-11-12-11-----12-12-11h12p11----9~---|
D|-----------------12-----------------12------|
A|--------------------------------------------|
E|--------------------------------------------|

e|---------------------------------|
B|---------------------------------|
G|------------------7-7-7^9--<9>---|
D|-------------7-9-----------------|
A|------7-9-10---------------------|
E|-8-10----------------------------|
   • •  • • •  •

e|------------------------------------------10-12-12~--|
B|-------8-10^12--10-8-----------8-9-10--12------------|
G|-9-7-9---------------9---7-8-9-----------------------|
D|-----------------------------------------------------|
A|-----------------------------------------------------|
E|-----------------------------------------------------|

e|-12---14-15-14--15--17--18^19-------------|
B|-------------------------------16~--17~---|
G|------------------------------------------|
D|------------------------------------------|
A|------------------------------------------|
E|------------------------------------------|

RYTHM GUITAR UNDER SOLO

e|-------------------------------------|
B|-------------------------------------|
G|-5--7--9--2--5--7--------9-------9---|
D|-5--7--9--2--5--7--------9-------9---|
A|-3--5--5--0--3--5--------7-------7---|
E|-------------------0-0-0---0-0-0-----|

e|-------------------------------------|
B|-------------------------------------|
G|-5--7--9--2---5--4--2----------------|
D|-5--7--9--2---5--4--2--5--4---9---2--|
A|-3--5--7--0---3--2--0--5--4---9---2--|
E|-----------------------3--2---7---0--|



BRIDGE INTO CHORUS (04:05)

e|-------------------------|
B|-------------------------|
G|-5----7----9-------------|
D|-5----7----9----2x-------|
A|-3----5----7----2x-------|
E|----------------0x-------|


CHORUS (04:12)


CHORUS RIFF (05:06)

e|------------------------------------------------------|
B|-12-10--------12-10---------12-10-----13-12-10--------|
G|-------12-9~-------12-------------12-----------12-11~-|
D|----------------------12~-----------------------------|
A|------------------------------------------------------|
E|------------------------------------------------------|

Guitar 2 plays the Chorus underneath


And that's it, have fun! =>
 





Comments


Popular Terasbetoni tabs & chords
Missa Miehet Ratsastaa Chords
Orjakaleeri Tabs
Orjatar 1 Tabs
Pyha Maa Tabs
Silma Silmasta Tabs
Sotureille Tabs
Taivas Ly Tulta 3 Tabs
Taivas Ly Tulta Intro Tabs
Teraksen Varjo 1 Tabs
Tuonelaan Tabs


Song lyrics



↑ Back to top | Tablatures and chords are parodies/interpretations of the original songs. You may use it for private study, scholarship, research or language learning purposes only
© 2014 AZChords.com Contact us | Privacy policy | DMCA | Add/correct tabs | Request tabs | Top 50 tabs