>
 >
Taivas Ly Tulta 1

Taivas Ly Tulta 1 Guitar Tabs

Terasbetoni - Taivas Ly Tulta 1 chords, tabs, tablatures, lyrics

Guitar lessons | Add/correct | Request | Top 50 tabs Artists:  A B C D E F G H I J K L M N O P Q R S T U V W X Y Z 0-9

Taivas Ly Tulta 1 Guitar Tabs – Terasbetoni

CD, Sheet music, Poster

Do you like Taivas Ly Tulta 1? Share with your friends now
TabsTabs v2Tabs v3
Terδsbetoni - Taivas Lyφ Tulta.



Thanks to: Ultimate-Skeba for the solo
----------------------------------------

h   - hammer-on
p   - pull-off
^   - bend
~   - vibrato
/\  - slide
X\\ - pick scrape
<3> - harmonic
X   - mute
•   - palm mute

Tuning is: Standard (EADGBe)

INTRO (00:00)

  Guitar 1
e|--------------------------------------|
B|--------------------------------------|
G|--------------------------------------|
D|--------------------------------------|
A|--------------------------------------|
E|-0--0-0-0-0--0-0-0-0--0-0-0-0---------|
   •  • • • •  • • • •  • • • •
  
  Guitar 2
e|----------------------------------------------------------------|
B|----------------------------------------------------------------|
G|-9--9-9-9--11-12--9-9~----12--12-12-12--14--12------------------|
D|------------------------------------------------12-12~----------|
A|----------------------------------------------------------------|
E|----------------------------------------------------------------|
 |
 |Guitar 1
e|----------------------------------------------------------------|
B|----------------------------------------------------------------|
G|---------------------------5------------------------------------|
D|-2-------------------------5------------------------------------|
A|-2-------------------------3------------------------------------|
E|-0--------------------------------------------------------------|


e|----------------------------------------------------------------|
B|-------------------12~--12--------------------------------------|
G|-12--12-12-12--14-----------14-12-14~--14^16-14-----------------|
D|----------------------------------------------------------------|
A|----------------------------------------------------------------|
E|----------------------------------------------------------------|
 |
 | 
e|----------------------------------------------------------------|
B|----------------------------------------------------------------|
G|---------------------------------------7------------------------|
D|-5-------------------------------------7------------------------|
A|-5-------------------------------------5------------------------|
E|-3--------------------------------------------------------------|

2nd Time you end it with a:

e|-------------------------|
B|-------------------------|
G|-12h14p12--11~-----------|
D|-------------------------|
A|-------------------------|
E|-------------------------|
 |
 |
e|-------------------------|
B|-------------------------|
G|-------------------------|
D|-4----\------------------|
A|-4----\------------------|
E|-2----\------------------|

MAIN RIFF (00:25)

e|------------------------------|
B|------------------------------|
G|-5----------------------------|
D|-5----------------------------|
A|-3--3-3-3--3-3-3--3-3-3--3-3--|
E|------------------------------|
      • • •  • • •  • • •  • •
e|----------------------|
B|----------------------|
G|----------------------|
D|----------------------|  x4
A|----------------------|
E|-0-0-0--0-0-0--0-0-0--|
   • • •  • • •  • • • 

e|---------------------------------------------------|
B|---------------------------------------------------|
G|---------------------------------------------------|
D|---------------------------------------------------|
A|-3-3-3--3-3--------------0-0--0-0-0--0-0-0--0-0----|
E|-------------3-3-3--3-3----------------------------|
   • • •  • •  • • •  • •  • • •  • • •  • • •  • • 

BRIDGE (00:37)

e|------------------------------|
B|------------------------------|
G|-5---7-------------------4\---|
D|-5---7-------------------4\---|
A|-3---5----------4-4-4-4--2\---|
E|--------2-2-2-2-2-2-2-2-------|
          • • • • 
CHORUS (00:45)
                   2nd time you add this power chord
e|----------------|-----|
B|----------------|-----|
G|-----5-------7--|--8--|
D|-2---5---5---7--|--8--| x2
A|-2---3---5---5--|--6--|
E|-0-------3------|-----|

CHORUS ENDING (01:02)

e|--------------------------------------|
B|--------------------------------------|
G|--------------------------------------|
D|-----------------5-4-2---2-4-<2>------|
A|-2--2-2-2--2-2---------5------------2-|
E|-0--0-0-0--0-0----------------------0-|
   •  • • •  • •   • • • • • •        • 

MAIN RIFF (01:10)
BRIDGE    (01:22)
CHORUS    (01:31)

SOLO (01:47)

e|----------------------<11>------------------5-4-8^9-7----|
B|----------5--4-----------------------5--4----------------|
G|--6---4-6------6-2-1---------6---4-6------6--------------|
D|---------------------4-----------------------------------|
A|---------------------------------------------------------|
E|---------------------------------------------------------|

e|--9-12-11-9----------------------------------------------|
B|------------12-10-9--------------------------(5)---------|
G|--------------------11-9-8-9-11-9-8----9-8h9-----4-------|
D|------------------------------------11-------------------|
A|---------------------------------------------------------|
E|---------------------------------------------------------|

e|-------------7h9p7-7h9p7---7h9p7-7h9p7----12-11-9-7~-----|
B|-------5-7-9-------------9-------------9-----------------|
G|-6-8-9---------------------------------------------------|
D|---------------------------------------------------------|
A|---------------------------------------------------------|
E|---------------------------------------------------------|
   • • • • • •

e|--8-10-10^11-10-8-10-12-12^14---12-14-15--14h15p14--11\--|
B|---------------------------------------------------------|
G|---------------------------------------------------------|
D|---------------------------------------------------------|
A|---------------------------------------------------------|
E|---------------------------------------------------------|

RYTHM DURING SOLO

e|--------------------------------------------------------|
B|--------------------------------------------------------|
G|-6---------------9--8--6--2--------------4--------------|
D|-6---------------9--8--6--2--------------4--------------|
A|-4--4-4-4--4-4---7--6--4--0--0-0-0--0-0--2--2-2-2--2-2--|
E|--------------------------------------------------------|
      • • •  • •               • • •  • •     • • •  • •
  2nd ending looks like this
e|--------------|
B|--------------|
G|-2-----6--4---|
D|-2--6--6--4---|
A|-0--6--4--2---|
E|----4---------|

  4th ending looks like this
e|--------------------------------------------|
B|--------------------------------------------|
G|-2-----2--4----5---7------------------------|
D|-2--6--2--4----5---7-----------4-4-4-4--4\--|
A|-0--6--0--2----3---5---4-4-4-4-4-4-4-4--4\--|
E|----4------------------2-2-2-2-2-2-2-2--2\--|

CHORUS 2 (02:20)

e|-------------|----------------|
B|-------------|----------------|
G|-------------|-----7-------9--|
D|-------------|-4---7---7---9--|
A|-pick scrape-|-4---5---7---7--|
E|--x\\\\\-----|-2-------5------|

At 02:39 the second guitar comes in with:

e|-------------------------------------------------------|
B|-------------------------------------------------------|
G|-11--11-11-11-13-14--11-11---14--14-14-14-16-14--------|
D|------------------------------------------------14-14--|
A|-------------------------------------------------------|
E|-------------------------------------------------------|

e|-------------------------------------------------------|
B|------------------14-14--------------------------------|
G|-14--14-14-14-16--------16-14-16--16^18-16-------------|
D|-------------------------------------------------------|
A|-------------------------------------------------------|
E|-------------------------------------------------------|

e|-------------------------------------------------------|
B|-------------------------------------------------------|
G|-11--11-11-11-13-14--11-11---14--14-14-14-16-14--------|
D|------------------------------------------------14-14--|
A|-------------------------------------------------------|
E|-------------------------------------------------------|

e|--------------17^19-17-16-14--14h16p14--13~------------|
B|-17^19-17-14-------------------------------------------|
G|-------------------------------------------------------|
D|-------------------------------------------------------|
A|-------------------------------------------------------|
E|-------------------------------------------------------|

OUTRO (03:13)

e|----------------|------------------------------------|
B|----------------|------------------------------------|
G|----7-----9--6--|------------------------------------|
D|-4--7--7--7--6--|---------------------------------4--|
A|-4--5--7--7--4--|---------------------------------4--|
E|-2-----5--------|--2--2-2-2-2--2-2-2-5-4-2-0-2-4--2--|
                     •  • • • •  • • • • • • • • • 

The End, Have fun! =)





Comments


Popular Terasbetoni tabs & chords
Ala Kerro Meille Tabs
Metallitotuus Tabs
Orjatar Tabs
Orjatar 1 Tabs
Pyha Maa Tabs
Sotureille Tabs
Taivas Ly Tulta Tabs
Taivas Ly Tulta Intro Tabs
Teraksen Varjo 1 Tabs
Vahva Kuin Metalli Tabs


Song lyrics



↑ Back to top | Tablatures and chords are parodies/interpretations of the original songs. You may use it for private study, scholarship, research or language learning purposes only
© 2014 AZChords.com Contact us | Privacy policy | DMCA | Add/correct tabs | Request tabs | Top 50 tabs