>
 >
Pyha Maa

Pyha Maa Guitar Tabs

Terasbetoni - Pyha Maa chords, tabs, tablatures, lyrics

Guitar lessons | Add/correct | Request | Top 50 tabs Artists:  A B C D E F G H I J K L M N O P Q R S T U V W X Y Z 0-9

Pyha Maa Guitar Tabs – Terasbetoni

CD, Sheet music, Poster

Do you like Pyha Maa? Share with your friends now
Tabs


The middle of the solo is probably wrong, corrections welcome.


Taivas lyö tulta!!!


h   - hammer-on
p   - pull-off
^   - bend
~   - vibrato
/\  - slide
X\\ - pick scrape
<3> - harmonic
*   - see note
X   - mute


Intro

 Gtr I
|--------------------------|    |--------------------------|
|--12--12p10---------------|    |--12--12p10---------------|
|--------------12--11--12--|    |------------------11~-----|
|--------------------------|    |--------------------------|
|--------------------------|    |--------------------------|
|--------------------------| x3 |--------------------------|
|Gtr II
|--------------------------|    |--------------------------|
|--------------------------|    |--------------------------|
|--12--12p11----9------9---|    |--12--12p11---------------|
|------------------12------|    |------------------12~-----|
|--------------------------|    |--------------------------|
|--------------------------| x3 |--------------------------|

 Gtr I
|--------------------------|    |-----------|
|--12--12p10---------------|    |-----------|
|--------------12--11--12--|    |--9--<9>*--|
|--------------------------|    |-----------|
|--------------------------|    |-----------|
|--------------------------| x4 |-----------| *Attack with the whammy bar
|Gtr II
|--------------------------|    |-----------|
|--------------------------|    |-----------|
|--12--12p11----9------9---|    |--9~~~-----|
|------------------12------|    |-----------|
|--------------------------|    |-----------|
|--------------------------| x4 |-----------|


Verse Gtr I & Gtr II

|----------|
|----------|
|----------|
|----------|
|----------|
|--8----5--| Flange effect

|-----------|    |-----------|    |-----------|    |-----------|
|-----------|    |-----------|    |-----------|    |-----------|
|-----------|    |-----------|    |-----------|    |-----------|
|-----------|    |-----------|    |-----------|    |-----------|
|-----------|    |-----------|    |-----------|    |-----------|
|--0-0-0-0--| x8 |--5-5-5-5--| x4 |--8-8-8-8--| x2 |--5-5-5-5--| x2
PM........       PM........       PM........       PM........



Bridge Gtr I & Gtr II

|----------|----------|----------|
|----------|----------|----------|
|----------|----------|----------|
|--5----9--|--5-4--2--|--5----7--|
|--3----7--|--3-2--0--|--3----5--|
|----------|----------|----------|



Chorus Gtr I & Gtr II

|-----------------|--------------------|    |------|
|-----------------|--------------------|    |------|
|-----------------|--------------------|    |------|
|-------7-9-------|--5-----5--7-----7--|    |--9\--|
|--2----5-7----7--|--3--5--3--5--7--5--|    |--7\--|
|--0-----------5--|-----3--------5-----| x2 |------|



Verse 2 Gtr I & Gtr II

|----------|
|----------|
|----------|
|--5-------|
|--3----7--|
|-------5--| Flange effect

|-----------|    |-----------|    |-----------|    |-----------|
|-----------|    |-----------|    |-----------|    |-----------|
|-----------|    |-----------|    |-----------|    |-----------|
|-----------|    |-----------|    |-----------|    |-----------|
|-----------|    |-----------|    |-----------|    |-----------|
|--0-0-0-0--| x8 |--5-5-5-5--| x4 |--8-8-8-8--| x2 |--5-5-5-5--| x2
PM........       PM........       PM........       PM........


Bridge

Chorus


Solo Gtr I

|-----------------------------------------|
|----------8-7----------------------------|
|--9---7-9-----9-7------------------------|
|-------------------10-9-7----------------|
|--------------------------10-9-7---<7>~--|
|-----------------------------------------|
                  PM.............

|-------------------------------------------|
|-------------------------------------------|
|-------------------------------------------|
|----------<5>---<7>-5h7p5-4----------------|
|--5-7-7-7-----7-------------5--3--5--7--5--|
|-------------------------------------------|

|------------|    |-------|
|--17p15-----|    |--18~--|
|--------16--|    |-------|
|------------|    |-------|
|------------|    |-------|
|------------| x8 |-------|

|---------------------------------------------------------|
|--20p17-----20p17-----20p17-----20p17------20p17--20p17--|
|--------19--------19--------19--------19-----------------|
|---------------------------------------------------------|
|---------------------------------------------------------|
|---------------------------------------------------------|

 Gtr I
|-------------------------------------22-20-19-------------------------------|------|
|----------------------------17-18-20----------22-20-19----------------------|------|
|-------------------16-17-19----------------------------21-19-17-------------|------|
|----------15-17-19----------------------------------------------21-19-17----|------|
|-15-17-19----------------------------------------------------------------19-|-X//--|
|----------------------------------------------------------------------------|-X//--|
|Gtr II
|----------------------------------------------------------------------------|------|
|----------------------------------------------------------------------------|------|
|----------------------------------------------------------------------------|------|
|-5-----------------------5-----------7-----------------------7-----------9--|--X//-|
|-3-----------5-----------3-----------5-----------7-----------5-----------7--|--X//-|
|-------------3-----------------------------------5--------------------------|------|



Break Gtr I & Gtr II

|--------------|--------------|
|--------------|--------------|
|--------------|--------------|
|--------------|--------------|
|--2------7----|--7-7-7--X//--|
|--0----X-5----|--5-5-5--X//--|



Chorus Gtr I & Gtr II

|-----------------|--------------------|
|-----------------|--------------------|
|-----------------|--------------------|
|-------7-9-------|--5-----5--7-----7--|
|--2----5-7----7--|--3--5--3--5--7--5--|
|--0-----------5--|-----3--------5-----| x4



Outro Gtr I & Gtr II

|--------------|--------|------|
|--------------|--------|------|
|--------------|--------|------|
|--5--4--2-----|--2*----|--9\--|
|--3--2--0--5--|--2*----|--7\--|
|-----------3--|--0*----|------| *Ad lib here, good solo spot





Comments


Popular Terasbetoni tabs & chords
Missa Miehet Ratsastaa Chords
Kirotut Tabs
Orjakaleeri Tabs
Orjatar 1 Tabs
Sotureille Tabs
Taivas Ly Tulta Tabs
Taivas Ly Tulta 1 Tabs
Terasbetoni Tabs
Vahva Kuin Metalli Tabs
Missa Miehet Ratsastaa Ukulele


Song lyrics



↑ Back to top | Tablatures and chords are parodies/interpretations of the original songs. You may use it for private study, scholarship, research or language learning purposes only
© 2014 AZChords.com Contact us | Privacy policy | DMCA | Add/correct tabs | Request tabs | Top 50 tabs