» » »

Orjatar Tabs (ver.2)

Artists:  A B C D E F G H I J K L M N O P Q R S T U V W X Y Z # 

Orjatar Tabs (ver.2)

Terasbetoni
Rating:
5/5 (2 votes)

Hard to play? Try these video lessons and learn fast.
                Tuning : B F# B E G# C# (Rhythm Guidar)

--> LOW : B F# B E G# C#


INTRO
---------------------|
---------------------|
-55-55---55-55-3-5---|
-55-55---55-55-1-3---|
-55-55---55-55-------|
 xx xx   xx xx

------------------------------------|
------------------------------------|
------------------------------------|
-1-3---8-5---8-3--5-3-1---0---5-3-2-|
-1-3---8-5---8-3--5-3-1---0---3-1-0-|
-1-3---8-5---8-3--5-3-1---0---------|

Takana on raskas retki..
-------------------------------------------------------------|
-------------------------------------------------------------|
-------------------------------------------------------------|
-55-55-55-55-55-55-55-3-5----55-55-55-55-55-55-55--8-10--1-3-|
-55-55-55-55-55-55-55-1-3----33-33-33-33-33-33-33--6-8---1-3-|
-55-55-55-55-55-55-55------------------------------------1-3-|
 xx xx xx xx xx xx xx        xx xx xx xx xx xx xx

Chorus I
----------------------------|
----------------------------|
----------------------------|
-8-5---8-3--5-3-1---0-5-3-2-|
-8-5---8-3--5-3-1---0-3-1-0-|
-8-5---8-3--5-3-1---0-------|

-----------------------|
-----------------------|
-----------------------|
-8-5---8-3-5-3-1--7--0-|
-8-5---8-3-5-3-1--7--0-|
-8-5---8-3-5-3-1--7--0-|

Solo Rhytm
----------------------------------------------------------------------------|
----------------------------------------------------------------------------|
----------------------------------------------------------------------------|
-77-77-77-77-77-77-77-77-77-77-88-88-88-88-77-77-77-77-88-88-88-88-0-5-3-2--|
-77-77-77-77-77-77-55-55-55-55-66-66-66-66-55-55-55-55-66-66-66-88-0-3-1-0--|
-77-77-77-77-77-77-------------------------------------------------0--------|
 xx xx xx xx xx xx xx xx xx xx xx xx xx xx xx xx xx xx xx xx xx xx


Chorus II
----------------------------------------------------------------------------|
----------------------------------------------------------------------------|
----------------------------------------------------------------------------|
-10-7---10-5--7-5-3--9-7-5-4--10-7---10-5--7-5-3--9--14-12-10-9--7----------|
-10-7---10-5--7-5-3--7-5-3-2--10-7---10-5--7-5-3--9--14-12-10-9--7----------|
-10-7---10-5--7-5-3-----------10-7---10-5--7-5-3--9--14-12-10-9--7----------|

END
            
Hard to play? Try these video lessons and learn fast. | Correct




comments powered by Disqus
↑ Back to top | Tablatures and chords are parodies/interpretations of the original songs. You may use it for private study, scholarship, research or language learning purposes only