>
 >
Metallitotuus

Metallitotuus Guitar Tabs

Terasbetoni - Metallitotuus chords, tabs, tablatures, lyrics

Guitar lessons | Add/correct | Request | Top 50 tabs Artists:  A B C D E F G H I J K L M N O P Q R S T U V W X Y Z 0-9

Metallitotuus Guitar Tabs – Terasbetoni

CD, Sheet music, Poster

Do you like Metallitotuus? Share with your friends now
Tabs
Terδsbetoni - Metallitotuus


-----------------------------

h   - hammer-on
p   - pull-off
^   - bend
~   - vibrato
/\  - slide
X\\ - pick scrape
<3> - harmonic
X   - mute
•   - palm mute

Tuning is: Standard (EADGBe)

INTRO/OUTRO (00:00)
  
  G1
e|--------------------|
B|-5----7----8----10--|
G|-7b---9b---10b--12b-|
D|--------------------|
A|--------------------|
E|--------------------|
 |
 |G2
e|--------------------|
B|--------------------|
G|--------------------|
D|--2---4---5---7-----|
A|--2---4---5---7-----|
E|--0---2---3---5-----|
  
  G1
e|--------------------------------|
B|----12---------------12---------|
G|-12----12/11-11---12----12/9-9--|
D|--------------------------------|
A|--------------------------------|
E|--------------------------------|
 |
 |G2
e|--------------------------------|
B|--------------------------------|
G|-7-------5-------9-------5------|
D|-7-------5-------9-------5------|
A|-5-------3-------7-------3------|
E|--------------------------------|

  G1
e|------------------------------------|
B|----12------------------------------|
G|-12----12/11-11---12p11-9---11p9-8--|
D|------------------------------------|
A|------------------------------------|
E|------------------------------------|
 |
 |G2
e|------------------------------------|
B|------------------------------------|
G|-7-----------5--------------4-------|
D|-7-----------5--------------4-------|
A|-5-----------3--------------2-------|
E|------------------------------------|       All of this x2

------------------------------------------------------------------

INTRO ENDING

  G1
e|------------------------------------|
B|----12-------------------11~--12~---|
G|-12----12p11-11---12p11-------------|
D|------------------------------------|
A|------------------------------------|
E|------------------------------------|
 | 
 |G2
e|------------------------------------|
B|------------------------------------|
G|-7-----------5----------------4-----|
D|-7-----------5-----------4----4-----|
A|-5-----------3-----------4----2-----|
E|-------------------------2----------|

-------------------------------------------------------------------

VERSE (00:27)

e|--------------------------------------------------|
B|--------------------------------------------------|
G|--------------------------------------------------|
D|-5-5-5-5-5-5-7-7-7-7-7-7-9-9-9-9-9-9-9-9-9-9-9-9--|
A|-3-3-3-3-3-3-5-5-5-5-5-5-7-7-7-7-7-7-7-7-7-7-7-7--|
E|--------------------------------------------------|
   • • • • • • • • • • • • • • • • • • • • • • • •
  
  G1
e|--------------------------------------------------|
B|--------------------------------------------------|
G|--------------------------------------------------|
D|-5-5-5-5-5-5-7-7-7-7-7-7-9-9-9-9-9-5--------------|
A|-3-3-3-3-3-3-5-5-5-5-5-5-7-7-7-7-7---<7>~---------|
E|--------------------------------------------------|
 | • • • • • • • • • • • • • • • • • 
 |G2
e|--------------------------------------------------|
B|--------------------------------------------------|
G|--------------------------------------------------|
D|-5-5-5-5-5-5-7-7-7-7-7-7-9-9-9-9-9-9-9-9-9-9-9-9--|
A|-3-3-3-3-3-3-5-5-5-5-5-5-7-7-7-7-7-7-7-7-7-7-7-7--|
E|--------------------------------------------------|
   • • • • • • • • • • • • • • • • • • • • • • • •


e|--------------------------------------------------|
B|--------------------------------------------------|
G|--------------------------------------------------|
D|-5-5-5-5-5-5-7-7-7-7-7-7-9-9-9-9-9-9-4-4-4-4-4-4--|
A|-3-3-3-3-3-3-5-5-5-5-5-5-7-7-7-7-7-7-2-2-2-2-2-2--|
E|--------------------------------------------------|
   • • • • • • • • • • • • • • • • • • • • • • • •

  G1
e|----------------------------------------------------|
B|----------------------------------------------------|
G|---------------------------------------4-4-4-4-4-4--|
D|-5-5-5-5-5-5-7-7-7-7-7-7-4-4-4-4-4-4-4-4-4-4-4-4-4--|
A|-3-3-3-3-3-3-5-5-5-5-5-5-2-2-2-2-2-2-2-2-2-2-2-2-2--|
E|----------------------------------------------------|
 | • • • • • • • • • • • • • • • • • • •
 |G2
e|----------------------------------------------------|
B|----------------------------------------------------|
G|----------------------------------------------------|
D|-5-5-5-5-5-5-7-7-7-7-7-7-4-4-4-4---4-4---4-4---4-4--|
A|-3-3-3-3-3-3-5-5-5-5-5-5-2-2-2-2-2-2-0-2-2-0-2-2-0--|
E|----------------------------------------------------|
   • • • • • • • • • • • • • • • • •     •     • 
  
  G1
e|--------------------------------------------------|
B|--------------------------------------------------|
G|-5-----------7-----------9------------------------|
D|-5-----------7-----------9------------------------|
A|-3-----------5-----------7------------------------|
E|--------------------------------------------------|
 |
 |G2
e|--------------------------------------------------|
B|--------------------------------------------------|
G|--------------------------------------------------|
D|-5-5-5-5-5-5-7-7-7-7-7-7-9-9-9-9-9-9-9-9-9-9-9-9--|
A|-3-3-3-3-3-3-5-5-5-5-5-5-7-7-7-7-7-7-7-7-7-7-7-7--|
E|--------------------------------------------------|
   • • • • • • • • • • • • • • • • • • • • • • • •
 
  G1
e|--------------------------------------------------|
B|--------------------------------------------------|
G|-5-----------7-----------9------------------------|
D|-5-----------7-----------9------------------------|
A|-3-----------5-----------7------------------------|
E|--------------------------------------------------|
 |
 |G2
e|--------------------------------------------------|
B|--------------------------------------------------|
G|--------------------------------------------------|
D|-5-5-5-5-5-5-7-7-7-7-7-7-9-9-9-9-9-5--------------|
A|-3-3-3-3-3-3-5-5-5-5-5-5-7-7-7-7-7---<7>~---------|
E|--------------------------------------------------|
   • • • • • • • • • • • • • • • • • 

e|--------------------------------------------------|
B|--------------------------------------------------|
G|-5-----------7-----------9-----------4------------|
D|-5-----------7-----------9-----------4------------|
A|-3-----------5-----------7-----------2------------|
E|--------------------------------------------------|
 |
 |G2
e|--------------------------------------------------|
B|--------------------------------------------------|
G|--------------------------------------------------|
D|-5-5-5-5-5-5-7-7-7-7-7-7-9-9-9-9-9-9-4-4-4-4-4-4--|
A|-3-3-3-3-3-3-5-5-5-5-5-5-7-7-7-7-7-7-2-2-2-2-2-2--|
E|--------------------------------------------------|
   • • • • • • • • • • • • • • • • • • • • • • • • 

  G1
e|----------------------------------------|
B|----------------------------------------|
G|-5-----------7-----------4-4-4-4-4-4-4--|
D|-5-----------7-----------4-4-4-4-4-4-4--|
A|-3-----------5-----------2-2-2-2-2-2-2--|
E|----------------------------------------|
 |
 |G2
e|----------------------------------------|
B|----------------------------------------|
G|----------------------------------------|
D|-5-5-5-5-5-5-7-7-7-7-7-7-4-4-4-4-4-4-4--|
A|-3-3-3-3-3-3-5-5-5-5-5-5-2-0-2-0-2-0-2--|
E|----------------------------------------|
   • • • • • • • • • • • •

CHORUS (01:03)
  
  G1
e|----------------|
B|----------------|
G|-9--11--12--14--|
D|-x--x---x---x---|
A|-7--9---10--12--|
E|----------------|
 |
 |G2
e|----------------|
B|----------------|
G|-12--14--16--17-|
D|-x---x---x---x--|
A|-10--12--14--15-|
E|----------------|

e|---------------------------|
B|---------------------------|
G|-7---5---9---5---7---5---4-|
D|-7---5---9---5---7---5---4-|
A|-5---3---7---3---5---3---2-|
E|---------------------------|

  G1
e|----------------|
B|----------------|
G|-9--11--12--14--|
D|-x--x---x---x---|
A|-7--9---10--12--|
E|----------------|
 |
 |G2
e|----------------|
B|----------------|
G|-12--14--16--17-|
D|-x---x---x---x--|
A|-10--12--14--15-|
E|----------------|

e|-------------------------------|
B|-------------------------------|
G|-7---5---9---5---7---5-------4-|
D|-7---5---9---5---7---5---4---4-|
A|-5---3---7---3---5---3---4---2-|
E|-------------------------2-----|

VERSE (01:31)

CHORUS (02:07)

SOLO (02:35)

  G1
e|---------------------------------------------------------|
B|---------------------------------------------------------|
G|-9p0-9p0-9p0-9p0-9p0-9p0--11p0-11p0-11p0-11p0-11p0-11p0--|
D|---------------------------------------------------------|
A|---------------------------------------------------------|
E|---------------------------------------------------------|
 |
 |G3 (G2 is playing rhythm)
e|---------------------------------------------------|
B|---------------------------------------------------|
G|---------------------------------------------------|
D|---------------------------------------------------|
A|-7p0-7p0-7p0-7p0-7p0-7p0--9p0-9p0-9p0-9p0-9p0-9p0--|
E|---------------------------------------------------|
  

  G1
e|------------------------------------------------------|
B|------------------------------------------------------|
G|-12p0-12p0-12p0-12p0-12p0--12p0-14p0-14p0-14p0-13/24--|
D|------------------------------------------------------|
A|------------------------------------------------------|
E|------------------------------------------------------|
 |
 |G3
e|-----------------------------------------------|
B|-----------------------------------------------|
G|-----------------------------------------------|
D|-----------------------------------------------|
A|10p0-10p0-10p0-10p0-10p0-10p0--12p0-12p0-12p0--|
E|-----------------------------------------------|


e|-------------------------------|
B|-------------------------------|
G|-1212-1111-99------------------|   *Notice: This is not 1 and 2. It's 12*
D|--------------1212-1010-99-----|  
A|---------------------------12~-|
E|-------------------------------|

e|-------------------------------|
B|-------------------------------|
G|-1212-1111-99------------------|
D|--------------1212-1010-99-----|
A|---------------------------10~-|
E|-------------------------------| 
 
e|-------------------------------|
B|-------------------------------|
G|-1212-1111-99------------------|
D|--------------1212-1010-99-10~-|
A|-------------------------------|
E|-------------------------------|

e|-------------------------------|
B|-------------------------------|
G|-------------------9----9--11--|
D|-12-10-9---13-9-13---13--------|
A|-------------------------------|
E|-------------------------------|

e|---------------------------------------------|
B|---------------------------------------------|
G|----------------------7-----------------7-9~-|
D|--------9---------------------------7-9------|
A|-7-9-10---10-9-7-9-10---10-9-7-9-10----------|
E|---------------------------------------------|

e|---------------------------------------------------------|
B|---------------------------------------------------------|
G|-12p9------12p9-12p9------12p9-12p9------12p9-12p9-------|
D|------12p9-----------12p9-----------12p9-----------12p9--|
A|---------------------------------------------------------|
E|---------------------------------------------------------|

e|-----------------------------------------|
B|-----------------------------------------|
G|-12p9-11p9-12p9-11p9---------------------|
D|---------------------12p9-10p9-12p9-10~--|
A|-----------------------------------------|
E|-----------------------------------------|

e|--------------------------------------------------------|
B|--------------------------------------------------------|
G|---------------------------99---------------------------|
D|------99-1010-99-1010-1212----1212-1010-99--------------|
A|-1212--------------------------------------1212-1010-9~-|
E|--------------------------------------------------------|

e|-----------|
B|-----------|
G|-----------|
D|-----------|
A|-9b10--7~--|
E|-----------|

RHYTHM UNDERNEATH SOLO

e|-------------------------------------------|
B|-------------------------------------------|
G|----------------------7--5--9--5--7--5--4--|
D|----------------------7--5--9--5--7--5--4--|
A|-14/--14/--14/--14/---5--3--7--3--5--3--2--|
E|-12/--12/--12/--12/------------------------|

e|---------------------------------------------------|
B|---------------------------------------------------|
G|----------------------7--5--9--5--7--5------4------|
D|----------------------7--5--9--5--7--5--4---4---2--|
A|-14/--14/--14/--14/---5--3--7--3--5--3--4---2---2--|
E|-12/--12/--12/--12/---------------------2-------0--|


BRIDGE (03:20)

e|---------------------|
B|---------------------|
G|---------------------|
D|------2--4--5--7--2--|
A|-14/--2--4--5--7--2--|
E|-12/--0--2--3--5--0--|

CHORUS (03:30)

INTRO/OUTRO (03:57)

ENDING

G1
e|------------------------------------|
B|----12-------------------11~--12~---|
G|-12----12p11-11---12p11-------------|
D|------------------------------------|
A|------------------------------------|
E|------------------------------------|
 | 
 |G2
e|------------------------------------------|
B|------------------------------------------|
G|-7-----------5-----7------------------9/--|
D|-7-----------5-----7------------------9/--|
A|-5-----------3-----5-----77777777777777/--|
E|------------------------------------------|
                           •••••••••••••

And that's it. Have fun!





Comments


Popular Terasbetoni tabs & chords
Kirotut Tabs
Orjakaleeri Tabs
Orjatar Tabs
Pyha Maa Tabs
Sotureille Tabs
Taivas Ly Tulta 3 Tabs
Taivas Ly Tulta Intro Tabs
Teraksen Varjo Tabs
Teraksen Varjo 1 Tabs
Tuonelaan Tabs


Song lyrics



↑ Back to top | Tablatures and chords are parodies/interpretations of the original songs. You may use it for private study, scholarship, research or language learning purposes only
© 2014 AZChords.com Contact us | Privacy policy | DMCA | Add/correct tabs | Request tabs | Top 50 tabs