>
 >
Kirotut

Kirotut Guitar Tabs

Terasbetoni - Kirotut chords, tabs, tablatures, lyrics

Guitar lessons | Add/correct | Request | Top 50 tabs Artists:  A B C D E F G H I J K L M N O P Q R S T U V W X Y Z 0-9

Kirotut Guitar Tabs – Terasbetoni

CD, Sheet music, Poster

Do you like Kirotut? Share with your friends now
Tabs
Terδsbetoni - Kirotut



-----------------------------

h   - hammer-on
p   - pull-off
^   - bend
~   - vibrato
/\  - slide
X\\ - pick scrape
<3> - harmonic
X   - mute
•   - palm mute
*   - Natural Harmonic (or notice)
... - Continuity

Tuning is: Standard (EADGBe)

INTRO (00:25)
 
e|-------|
B|-------|
G|-------|
D|-4~~*--|  *Gradually increase volume*
A|-4~~---|
E|-2~~---|

e|-----------------------------------------|
B|-----------------------------------------|
G|-----------------------------------------|
D|--4-----4-----4-----7-----2-----4-----4--|
A|--5-----4-----5-----7-----2-----4-----5--|
E|--2-----2-----2-----5-----0-----2-----2--|


CHORUS (01:17)

e|--------------------------|
B|--------------------------|
G|--------------------------|
D|-7-----2-----4--4--4------|
A|-7-----2-----4--5--4------|
E|-5-----0-----2--2--2------|

VERSE (01:30)

e|--------------------------------|
B|--------------------------------|
G|--------------------------------|
D|--------------------------------| x8  
A|-4--4-4-4--4-4-5--5-5-5--5-5-4--|
E|-2--2-2-2--2-2-2--2-2-2--2-2-2--|
   •  • • •  • • •  • • •  • • • 
CHORUS (01:55)

e|--------------------------|
B|--------------------------|
G|--------------------------|
D|-7-----2-----4--4--4------|
A|-7-----2-----4--5--4------|
E|-5-----0-----2--2--2------|

e|-----------------------|
B|-----------------------|
G|---------7-------------|
D|----2----7----4--4--4--| x2
A|-/--2----5----4--5--4--|
E|-/--0----5----2--2--2--|


VERSE (02:33)

e|--------------------------------|
B|--------------------------------|
G|--------------------------------|
D|--------------------------------|x3
A|-4--4-4-4--4-4-5--5-5-5--5-5-4--|
E|-2--2-2-2--2-2-2--2-2-2--2-2-2--|
   •  • • •  • • •  • • •  • • •
e|--------------------------------|
B|--------------------------------|
G|--------------------------------|
D|--------------------------------|
A|-4--4-4-4--4-4----------2-2-----|
E|-2--2-2-2--2-2--2-0-2-5-----5-0-|
   •  • • •  • •  • • • • • • • • 
e|--------------------------------|
B|--------------------------------|
G|--------------------------------|
D|--------------------------------|x3
A|-4--4-4-4--4-4-5--5-5-5--5-5-4--|
E|-2--2-2-2--2-2-2--2-2-2--2-2-2--|
   •  • • •  • • •  • • •  • • •
e|--------------------------------|
B|--------------------------------|
G|--------------------------------|
D|--------------------------------|
A|-4--4-4-4--4-4----------2-2-----|
E|-2--2-2-2--2-2--2-0-2-5-----5-0-|
   •  • • •  • •  • • • • • • • •
CHORUS (02:59)

e|-----------------------|
B|-----------------------|
G|---------7-------------|
D|----2----7----4--4--4--|
A|-/--2----5----4--5--4--|
E|-/--0----5----2--2--2--|

"SOLO" (03:11)

e|---------------------------------|
B|---------------------------------|
G|-------------4--4-----------8-6~-|
D|-9/--6~--4-6-4--4-6-4-6~--x-8-6~-|
A|-9/--6~--4-6------6-4-6~---------|
E|---------------------------------|

e|------------------------|
B|------------------------|
G|-/4---------------------|
D|-/4-6--4-6-6/-4------4--|
A|----6--4-6-6/-4------4--|
E|--------------2------2--|

e|-------------------------------------|
B|-------------------------------------|
G|-----------------4--4-----------8-6~-|
D|-9-6-9/--6~--4-6-4--4-6-4-6~--x-8-6~-|
A|-9-6-9/--6~--4-6------6-4-6~---------|
E|-------------------------------------|
   • •
e|------------------|
B|------------------|
G|-3-6-6--6-3-3/----|
D|-3-6-6--6-3-3/-2--|
A|---------------2--|
E|---------------0--|

RHYTHM UNDERNEATH SOLO 

e|-------------------------|
B|-------------------------|
G|-------------------------|
D|---------------4------4--|
A|---------------4------4--|
E|-4-2-4-2...----2------2--|
   • • • • 
e|-------------------------|
B|-------------------------|
G|-------------------------|
D|---------------2---------|
A|---------------2---------|
E|-4-2-4-2...----0---------|
   • • • • 
CHORUS (03:34)

e|-------------------------|
B|-------------------------|
G|-------------------------|
D|-----4---2---6--6--6-----|x3
A|-----4---2---6--7--6-----|
E|-15/-2---0---4--4--4-----|

OUTRO (04:13)

e|-----------------------------------------------|
B|-----------------------------------------------|
G|-----------------------------------------------|
D|-------------------------------------------6/--|
A|-6--6-6-6--6-6-7--7-7-7--7-7-6--6-6-6--6-6-6/--|
E|-4--4-4-4--4-4-4--4-4-4--4-4-4--4-4-4--4-4-4/--|
   •  • • •  • • •  • • •  • • •  • • •  • •

I had some trouble tabbing out the verse, because the drums and bass
was interfering with the guitar sound, but I think that, which I tabbed,
sounds the most right. So uuh... Go nuts!





Comments


Popular Terasbetoni tabs & chords
Ala Kerro Meille Tabs
Metallitotuus Tabs
Orjakaleeri Tabs
Orjatar Tabs
Orjatar 1 Tabs
Pyha Maa Tabs
Taivas Ly Tulta Tabs
Taivas Ly Tulta Intro Tabs
Terasbetoni Tabs
Tuonelaan Tabs


Song lyrics



↑ Back to top | Tablatures and chords are parodies/interpretations of the original songs. You may use it for private study, scholarship, research or language learning purposes only
© 2014 AZChords.com Contact us | Privacy policy | DMCA | Add/correct tabs | Request tabs | Top 50 tabs