» » »

Working On The Road Tabs (ver.1)

Artists:  A B C D E F G H I J K L M N O P Q R S T U V W X Y Z # 

Working On The Road Tabs (ver.1)

Ten Years After
Rating:
0/5 (0 votes)
Tabs too difficult? Try these video lessons and learn fast.
                The intro goes like this (the verse has a similar pattern)
 
|-----------------------------|----------------------------|
|-----------------------------|----------------------------|
|-2------2------2------2------|----------------------------|
|-0--0-0-0--0-0-0--0-0-0--0-0-|-5------5------5------2--5--|
|-----------------------------|-3--3-3-3--3-3-3--3-3-0--3--|
|-----------------------------|----------------------------|

|---------------------------|----------------------------|
|---------------------------|----------------------------|
|-2------2------2-----------|-2------2------2------------|
|-0--0-0-0--0-0-0--0------3b|-0--0-0-0--0-0-0--0-0-----0-|
|--------------------3--3---|----------------------0h2---|
|---------------------------|----------------------------|

Verse:
Dm
 I've been working on the road about fifteen years
C                                                 Dm
 Been blowing my mind, I've been blasting my ears, Don't you know, babe?
Dm
 I've been sleeping all day and working all night
C                                                 Dm
 I made a lot of money, but it don't feel right, Don't you know, babe?
Dm
 Well, I've seen the world and it's seen me
C                                           Dm
 In a strange kind of way I guess I'm free, Don't you know, babe?
Dm
 Well, I've seen it bad and I've seen it good
C                                    Dm
 But, now, I want to clear my blood, Don't you know, babe?

Chorus: (I'm not sure about this so please leave feedback!)

|----------2-----------|----------3------------|
|-------3------3-------|-------5------5--------|
|----2------------2----|----5------------5-----|
|-0------------------0-|/5------------------5--|
|----------------------|-----------------------|
|----------------------|-----------------------|
 I've        got     a     feeling           for

|----------2-------------|----------2-----------|
|-------3------3p1-------|-------3--------------|
|----2-------------2p0---|----2-----------------|
|-0--------------------3b|-0--------------------|
|------------------------|----------------------|
|------------------------|----------------------|
 home.

|----------2-----------|----------3------------|
|-------3------3-------|-------5------5--------|
|----2------------2----|----5------------5-----|
|-0------------------0-|/5------------------5--|
|----------------------|-----------------------|
|----------------------|-----------------------|
 Some        where that I            call    my

|----------2-------------|----------2-----------|
|-------3------3p1-------|-------3--------------|
|----2-------------2p0---|----2-----------------|
|-0--------------------3b|-0--------------------|
|------------------------|----------------------|
|------------------------|----------------------|
 own.

the other verses are just like the first one but this riff is played by another guitar:

 Dm              C            Dm
|--------------|------------|-------------|
|-13b15--------|-11b13------|-13b15-------|
|--------------|------------|-------------|
|--------------|------------|-------------|
|--------------|------------|-------------|
|--------------|------------|-------------|

That's all I have, please leave feedback, there probably are mistakes, especially 
            
Tabs too difficult? Try these video lessons and learn fast.


comments powered by Disqus
↑ Back to top | Tablatures and chords are parodies/interpretations of the original songs. You may use it for private study, scholarship, research or language learning purposes only