» » »

Ive Been Ther Too Tabs (ver.1)

Artists:  A B C D E F G H I J K L M N O P Q R S T U V W X Y Z # 

Ive Been Ther Too Tabs (ver.1)

Ten Years After
Rating:
0/5 (0 votes)

Hard to play? Try these video lessons and learn fast.
                 INTRO:
         (A)                         (D)
e|--------------------------|------------2-------2-------|
B|-----------2--------2-----|---------------3------3-----|
G|-------------2--------2---|---------0-------2------2---| Play this Twice
D|---------2-----2--------2-|-------0------------------0-|
A|---0h3-0------------------|---0h3----------------------|
E|0h3-----------------------|0h3-------------------------|

Play the intro throughout the verses


(A)                        (D)
There's someone somewhere, who can't go on.

(A)                  (D)
There life is crying, It's all gone wrong.

(A)                 (D)
What can I say now, to help you through?

(A)                (D)
Except to say that, I've been there too.


Break:

e|-------------------------|-------------------------|
B|-------------------------|-------------------------|
G|-------------------------|-------------------------|
D|-------------------------|-------------------------|
A|-------------------------|-3h5-5-5-5-5-3-5-5-3~--5-|
E|-3h5-5-5-5-5-3-5-5-3~--5-|-------------------------|

e|-------------------------|----------------------------|
B|-------------------------|----------------------------|
G|-------------------------|----------------------------|
D|-------------------------|----------------------------|
A|-------------------------|-3h5-5-5-5-5-3-5-5-3~--5----|
E|-3h5-5-5-5-5-3-5-5-3~--5-|--------------------------5-|


Verse 2:

(A)                  (D)
Your soul is aching, you can't see it through

(A)                  (D)
But time is healing each day you do

(A)                  (D)
Keep looking forward, forget the past

(A)                 (D)
It's up to you now, don't let it last

N.C.       A        C         D                     A
You got to Wake up, shake up, you've got a right to live.

A               C               D             A
Shake up, don't break up, you've got a lot to give.


         (A)                         (D)
e|--------------------------|------------2-------2-------|
B|-----------2--------2-----|---------------3------3-----|
G|-------------2--------2---|---------0-------2------2---| Play this Twice
D|---------2-----2--------2-|-------0------------------0-|
A|---0h3-0------------------|---0h3----------------------|
E|0h3-----------------------|0h3-------------------------|


Here are the rest of the verses. Play them all the same.

You wake up one morning, you start to feel good.
The sun and the blue sky, looks like it should.
'cause time is a healer, it's strange but it's true.
So, keep looking forward, the sun will come through.


You got to wake up, shake up, you got a right to live.
Shake up, don't break up, you've got a lot to give.


                              SOLO


There's someone somewhere, who can't go on.
Their life is crying, it's all gone wrong.
What can I say now, to help you through?
Except to say that, I've been there too.


You got to wake up, shake up, you got a right to live.
Shake up, don't break up, you've got a lot to give.


End:

e|---------------------------|
B|---------------------------|
G|---------------------------|
D|---------------------------|
A|-----3-3-3-----3-3-3-0---0-|
E|-0h3-------0h3---------3---|


               And, as always,
                    Enjoy.
~osterkid


Legend
------

h = hammer on

~ = vibrato
            
Hard to play? Try these video lessons and learn fast. | Correct




comments powered by Disqus
↑ Back to top | Tablatures and chords are parodies/interpretations of the original songs. You may use it for private study, scholarship, research or language learning purposes only