» » »

Ten Years After, I'm Coming On Tabs (ver.2)

Artists:  A B C D E F G H I J K L M N O P Q R S T U V W X Y Z # 

I'm Coming On Tabs (ver.2)

Ten Years After Tabs
 Rating:
4/5 (4 votes)
I'm Coming On lessons Tabs too difficult? Try these video lessons and learn fast
                Im Comin On    Ten Years After


I was looking for this tab my self and i found a whole bunch of nuthing but the intro, 
i decided to just learn the whole thing the hard way and to make this so you dont have 
It may be a little off but its really close.
This is also my first tab online so it may be sloppy due the best you can.

Its played in the tune of A.


Key:     [~~] Let ring

         b - bend

         p - pull

         Ub - unbend slowly

         {}- how high the bend is

         / - Slide

         r - root note


   Intro / Main riff 1

|--------------------------------------------------------|
|--------------------------------------------------------|
|--------------------------------------------------------|
|--------------------------------------------------------|
|---------3---3-5b{7}5p3---3-----------------------------| Do twice
|--3/5-55---5------------5---5-3/5-55-5/-----------------|

           Main Riff 2

|--------------------------------------------------------|
|--------------------------------------------------------|
|---------5---5-7b{9}7p5---5-----------------------------| Do twice
|--5/7-77---7------------7---7-5/7-77-7~-----------------|
|--------------------------------------------------------|
|--------------------------------------------------------|

[Bass guitar basicly does the same as main riff 2 the entire song  except it scales down 
a real low A at the end.]


     Verse {Chords}


         A D Cr A


   2nd verse      CHORDS / RIFF

   A                      D                      A           A
Ohhhhh Baby dont cry, Dont cry , Dont cry , You shouldnt do that. -

- {Do 2 Times.}


          - The riff played after the above  -

|------------5--------------------------------------------------------|
|--------------8-5----------------------------------------------------|
|----7B{9}~~~~~~~7Ub-5h7~p5h7p5~--------------------------------------|
|------------------------------7~~------------------------------------|
|---------------------------------------------------------------------|
|---------------------------------------------------------------------|

  {Do 2 times.}


  CHORUS

   C D   C  A

  IM COMIN ON

 C        D     C     A

Babe , babe im comin on

 C     D           C     A

 YEA , YEA , IM   COMiN  ON

C     D     C   A     A            A
Babe, Baby Im Comin , Im Comin , Im Comin

{Repeat verse 2 riff once}

             OUTER CHORUS RIFF

   |------------------------------------------------------------|
   |------------------------------------------------------------|
   |--------------22222-----------------------------------------|
   |-7p6-5--------22222-----------------------------------------|
   |-------3--5/3-00000-----------------------------------------|
   |------------------------------------------------------------|

SOLO

: your own your own on that one :  Alvin Lee is NUTS!


repeat  verse 1 & chorus  then its over

Like i said its not completley perfect but it gives you an idea on what you have to do. 
idea on what you have to do.
            
Submit corrections

comments powered by Disqus
↑ Back to top | Ten Years After Tabs for I'm Coming On. Lyrics for acoustic guitar and electric guitar. Tablatures and chords are parodies/interpretations of the original songs. You may use it for private study, scholarship, research or language learning purposes only