» » »

What I Say Tabs (ver.1)

Artists:  A B C D E F G H I J K L M N O P Q R S T U V W X Y Z # 

What I Say Tabs (ver.1)

Ten Yard Fight
Rating:
0/5 (0 votes)

Hard to play? Try these video lessons and learn fast.
                
Intro Verse 
E|-------------------------|-------------------------------------------------| 
B|-------------------------|-------------------------------------------(x2)--| 
G|-----------5-4-----------|-----------5-4-----------------------------------| 
D|--3-3-3-3--5-4--7--7--7--|--3-3-3-3--5-4--7-7-7-7-7-7-7--------------------| 
A|--3-3-3-3--3-2--7--7--7--|--3-3-3-3--3-2--7-7-7-7-7-7-7--------------------| 
E|--1-1-1-1-------5--5--5--|--1-1-1-1-------5-5-5-5-5-5-5--------------------| 

E|---------------------------------------------------------------------------| 
B|-----------*-*-------------------------------------------------------------| 
G|--*-*-*-*--5-4--*-*-*-*-*-*-*------------5-4-------------------------------| 
D|--3-3-3-3--5-4--7-7-7-7-7-7-7---3-3-3-3--5-4--7-7-7-7-7-7-7----------------| 
A|--3-3-3-3--3-2--7-7-7-7-7-7-7---3-3-3-3--3-2--7-7-7-7-7-7-7----------------| 
E|--1-1-1-1-------5-5-5-5-5-5-5---1-1-1-1-------5-5-5-5-5-5-5----------------| 

Chorus 
E|------------------|----------------|------------------|--------------------| 
B|------------(x3)--|----------------|------------(x3)--|--------------------| 
G|--5-4--2-2--------|---------7-7-7--|--5-4--2-2--------|---------7--7-------| 
D|--5-4--2-2--------|--5-5-5--7-7-7--|--5-4--2-2--------|--5-5-5--7--7-------| 
A|--3-2--0-0--------|--5-5-5--5-5-5--|--3-2--0-0--------|--5-5-5--5--5-------| 
E|------------------|--3-3-3---------|------------------|--3-3-3-------------| 

Repeat Verse/Chorus 

Outro 
E|-----------------------------------------------------------|---------------|| 
B|-----------------------------------------------------(x6)--|---------------|| 
G|-------------5-5-5-5-5-5-----------------------------------|---------------|| 
D|--7-7-7-7-7--5-5-5-5-5-5--5-5-5-5-5--3-3-3-3--5-5----------|--7--7---------|| 
A|--7-7-7-7-7--3-3-3-3-3-3--5-5-5-5-5--3-3-3-3--5-5----------|--7--7---------|| 
E|--5-5-5-5-5---------------3-3-3-3-3--1-1-1-1--3-3----------|--5--5---------|| 
            
Hard to play? Try these video lessons and learn fast. | Correct




comments powered by Disqus
↑ Back to top | Tablatures and chords are parodies/interpretations of the original songs. You may use it for private study, scholarship, research or language learning purposes only