» » »

Stand Against Tabs (ver.1)

Artists:  A B C D E F G H I J K L M N O P Q R S T U V W X Y Z # 

Stand Against Tabs (ver.1)

Ten Yard Fight
Rating:
0/5 (0 votes)

Hard to play? Try these video lessons and learn fast.
                Stand against 

---------/----------------/-------------------------- 
---------/----------------/-------------------------- 
--7--9---/---7--5--4------/---9--7---------7-7-7----- 
--7--9---/---7--5--4--2---/---9--7--10--9--7-7-7----- 
--5--7---/---5--3--2--2---/---7--5--10--9--5-5-5----- 
---------/------------0---/---------8---7------------ 
             ~~~~~~~                       ~~~~~ 
               PM                            PM 

----------------------------------------------------- 
----------------------------------------------------- 
--9------7-----9------10--7-------------------------- 
--9--10--7--9--9--10--10--7-------------------------- 
--7--10--5--9--7--10--8---5-------------------------- 
-----8------7-----8----------------------------------
            
Hard to play? Try these video lessons and learn fast. | Correct




comments powered by Disqus
↑ Back to top | Tablatures and chords are parodies/interpretations of the original songs. You may use it for private study, scholarship, research or language learning purposes only