» » »

Proud To Be Straight Tabs (ver.1)

Artists:  A B C D E F G H I J K L M N O P Q R S T U V W X Y Z # 

Proud To Be Straight Tabs (ver.1)

Ten Yard Fight
Rating:
0/5 (0 votes)

Hard to play? Try these video lessons and learn fast.
                Band: Ten Yard Fight
Instrument: Guitar
Tuning: Standard

*(Next to note)=Harmonic (Fretting Hand Mute)
*(Under)= Palm Mute
/= Slide

Note: When doing Chorus Part 2 with the harmonics, strum the power chord THEN strum the 
as separate notes to get the proper sound. When I play it, I downstoke the note and 
the harmonic.

Riff 1 [Intro]
|-------------------|
|-------------------|
|-------------------|
|-------------------|
|7--4---(Pick Slide)|
|5--2---(Pick Slide)|

Riff 2 [Verse Part 1]
|------------------------------------------------------|
|------------------------------------------------------|
|------------------------------------------------------|
|------------------------------------------------------|
|5-5--5-9-9--9-7-7--7-11-11--5-5--5-5-5--5-7-7--7-7-7--|
|3-3--3-7-7--7-5-5--5-9--9---3-3--3-3-3--3-5-5--5-5-5--|

Riff 3 [Verse Part 2]
|------------------------------------------------------|
|------------------------------------------------------|
|------------------------------------------------------|
|------------------------------------------------------|
|5-5--5-9-9--9-7-7--7-11-11--5-5--5-5-5--5-7-7--7-7-7--|
|3-3--3-7-7--7-5-5--5-9--9---3-3--3-3-3--3-5-5--5-5-5--|
 * *  * * *  * * *  * *  *

Riff 4 [Chorus Part 1]
|-----------------------------------------------------|
|-----------------------------------------------------|
|-----------------------------------------------------|
|-----------------------------------------------------|
|11-11--11-7-7--7-9-9--9-5-5--11-11--11-7-7--7-9-9-9-9|
|9--9---9--5-5--5-7-7--7-3-3--9--9---9--5-5--5-7-7-7-7|

Riff 5 [Chorus Part 2]
|-----------------------------------------------------------|
|-----------------------------------------------------------|
|-----------------------------------------------------------|
|-----------------------------------------------------------|
|11-11--11-7-7--7-9-9--9-5-5--11-11--11-7-7--7-9*9*9*9*9-9-9|
|9--9---9--5-5--5-7-7--7-3-3--9--9---9--5-5--5-7*7*7*7*7-7-7|

Riff 6 [Post Chorus]
|--------------------|
|--------------------|
|--------------------|
|--------------------|
|5-(Ring)-(Pickslide)|
|3-(Ring)-(Pickslide)|

Riff 7 [Outro/Breakdown]
|------------------------------|
|------------------------------|
|------------------------------|
|----7/9/7-9-9------7/9/7-9-7-5|
|7-7-5/7/5-7-7--7-7-5/7/5-7-5-3|
|5-5------------5-5------------|

End With
|-------------|
|-------------|
|-------------|
|-------------|
|7-(Dont Ring)|
|5-(Dont Ring)|
            
Hard to play? Try these video lessons and learn fast. | Correct




comments powered by Disqus
↑ Back to top | Tablatures and chords are parodies/interpretations of the original songs. You may use it for private study, scholarship, research or language learning purposes only