» » »

Ten Yard Fight, No Place Tabs (ver.1)

Artists:  A B C D E F G H I J K L M N O P Q R S T U V W X Y Z # 

No Place Tabs (ver.1)

Ten Yard Fight Tabs
 Rating:
4/5 (4 votes)
No Place lessons Tabs too difficult? Try these video lessons and learn fast
                

Verse Chorus 
E|---------------------------------|-----------------------------------(x2)--| 
B|---------------------------(x4)--|--6-6-6-6--5-5-5-5-----------------------| 
G|--4-4-4-------7-7-7-7-7-7--------|--------------------5-5-5-5--4-4--5-5----| 
D|--4-4-4--5-4--7-7-7-7-7-7--------|--3-3-3-3--2-2-2-2-----------4-4--5-5----| 
A|--2-2-2--5-4--5-5-5-5-5-5--------|--------------------3-3-3-3--2-2--3-3----| 
E|---------3-2---------------------|-----------------------------------------| 

Reepat Verse/Chorus 

Outro 
E|---------------------------------|-----------------------------------------|| 
B|---------------------------(x6)--|-----------------------------------------|| 
G|--4-4-4-------7-7-7-7-7-7--------|--4--------------------------------------|| 
D|--4-4-4--5-4--7-7-7-7-7-7--------|--4--------------------------------------|| 
A|--2-2-2--5-4--5-5-5-5-5-5--------|--2--------------------------------------|| 
E|---------3-2---------------------|-----------------------------------------|| 
            
Submit corrections

comments powered by Disqus
↑ Back to top | Ten Yard Fight Tabs for No Place. Lyrics for acoustic guitar and electric guitar. Tablatures and chords are parodies/interpretations of the original songs. You may use it for private study, scholarship, research or language learning purposes only