» » »

Ten Yard Fight, Lost Sight Tabs (ver.1)

Artists:  A B C D E F G H I J K L M N O P Q R S T U V W X Y Z # 

Lost Sight Tabs (ver.1)

Ten Yard Fight Tabs
 Rating:
4/5 (4 votes)
Lost Sight lessons Tabs too difficult? Try these video lessons and learn fast
                
Intro 
E|---------------------------------------------------------------------------| 
B|--*--*--*--*------*--*--*--*-----------------------------------------------| 
G|--10-10-10-10-10--10-10-10-10-10--9------9---------------------------------| 
D|--10-10-10-10-10--10-10-10-10-10--9--2-------------------------------------| 
A|--8--8--8--8--8---8--8--8--8--8---7--2-------------------------------------| 
E|-------------------------------------0-------------------------------------| 

Verse 
E|---------------------------------------------------------------------------| 
B|--*-*-*--*-*-*--*-*-*--*-*-*--*--*-----*-*-*--*-*-*--*-*-*-*--*---(x2)-----| 
G|--9-9-9--7-7-7--9-9-9--5-5-5--10-10-7--9-9-9--5-5-5--7-7-7-7-7-------------| 
D|--9-9-9--7-7-7--9-9-9--5-5-5--10-10-7--9-9-9--5-5-5--7-7-7-7-7-------------| 
A|--7-7-7--5-5-5--7-7-7--3-3-3--8--8--5--7-7-7--3-3-3--5-5-5-5-5-------------| 
E|---------------------------------------------------------------------------| 

E|---------------------------------------------------------------------------| 
B|------------------------------------------------------------------(x2)-----| 
G|--9-9-9--7-7-7--9-9-9--5-5-5--10-10-7--9-9-9--5-5-5--7-7-7-7-7-------------| 
D|--9-9-9--7-7-7--9-9-9--5-5-5--10-10-7--9-9-9--5-5-5--7-7-7-7-7-------------| 
A|--7-7-7--5-5-5--7-7-7--3-3-3--8--8--5--7-7-7--3-3-3--5-5-5-5-5-------------| 
E|---------------------------------------------------------------------------| 

Chorus 
E|---------------------------------------------------------------------------| 
B|--*--*--*--*------*--*--*--*---------------*--*--*--*----------------------| 
G|--10-10-10-10-10--10-10-10-10-10--9---5----10-10-10-10-10--9---9-------9---| 
D|--10-10-10-10-10--10-10-10-10-10--9-7-5----10-10-10-10-10--9-7-9-------9---| 
A|--8--8--8--8--8---8--8--8--8--8---7-7-3----8--8--8--8--8---7-7-7-------7---| 
E|------------------------------------5------------------------5---0-0-0-----| 

E|---------------------------------------------------------------------------| 
B|--*--*--*--*------*--*--*--*---------------*--*--*--*------*-*----*-*------| 
G|--10-10-10-10-10--10-10-10-10-10--9---5----10-10-10-10-10--5-5-5--7-7-7----| 
D|--10-10-10-10-10--10-10-10-10-10--9-7-5----10-10-10-10-10--5-5-5--7-7-7----| 
A|--8--8--8--8--8---8--8--8--8--8---7-7-3----8--8--8--8--8---3-3-3--5-5-5----| 
E|------------------------------------5--------------------------------------| 

Repeat Verse 

Repeat Chorus 

Break 
E|-----|-------------|-------------------------------------------------------| 
B|-----|-------(x4)--|---------------------------------------------(x2)------| 
G|--9--|--7-9--------|--7------7--7-5--5-7-7-7--7-10-10-10--9----------------| 
D|--9--|--7-9--------|--7-7--7-7--7-5--5-7-7-7--7-10-10-10--9----------------| 
A|--7--|--5-7--------|--5-7--7-5--5-3--3/5-5-5--5/8--8--8---7----------------| 
E|-----|-------------|----5--5-----------------------------------------------| 

Repeat Verse 

Outro 
E|---------------------------------------------------------------------------|| 
B|--*--*--*--*------*--*--*--*-----------------------------------------------|| 
G|--10-10-10-10-10--10-10-10-10-10--9----------------------------------------|| 
D|--10-10-10-10-10--10-10-10-10-10--9----------------------------------------|| 
A|--8--8--8--8--8---8--8--8--8--8---7----------------------------------------|| 
E|---------------------------------------------------------------------------|| 
            
Submit corrections

comments powered by Disqus
↑ Back to top | Ten Yard Fight Tabs for Lost Sight. Lyrics for acoustic guitar and electric guitar. Tablatures and chords are parodies/interpretations of the original songs. You may use it for private study, scholarship, research or language learning purposes only