» » »

Hardcore Pride Tabs (ver.2)

Artists:  A B C D E F G H I J K L M N O P Q R S T U V W X Y Z # 

Hardcore Pride Tabs (ver.2)

Ten Yard Fight
Rating:
0/5 (0 votes)

Hard to play? Try these video lessons and learn fast.
                Intro
E|-----------------|------------|--------------------------------------------|
B|-----------(x4)--|------------|----*-*---*-*---*-*-------------------(x3)--|
G|--5-4-5-4--------|--7--5-4-5--|--4-4-4-4-4-4-4-4-4--5-4-5------------------|
D|--5-4-5-4--------|--7--5-4-5--|--4-4-4-4-4-4-4-4-4--5-4-5------------------|
A|--3-2-3-2--------|--5--3-2-3--|--2-2-2-2-2-2-2-2-2--3-2-3------------------|
E|-----------------|------------|--------------------------------------------|

E|---------------------------------|-----------------------------------------|
B|----*-*---*-*---*-*--------------|-----------------------------------------|
G|--4-4-4-4-4-4-4-4-4--7-5-4-5-----|-----------5--7-7-7-7-7------------------|
D|--4-4-4-4-4-4-4-4-4--7-5-4-5--2--|--2-2-2--5-5--7-7-7-7-7------------------|
A|--2-2-2-2-2-2-2-2-2--5-3-2-3--2--|--2-2-2--5-3--5-5-5-5-5------------------|
E|------------------------------0--|--0-0-0--3-------------------------------|

   Verse
E|---------------------------------------------------------------------------|
B|---------------------------------------------------------------------(x2)--|
G|-------------5--7-7-7-7-7--------------5--7-7-7-7--5-5-5-------------------|
D|--2-2-2-2--5-5--7-7-7-7-7---2-2-2-2--5-5--7-7-7-7--5-5-5-------------------|
A|--2-2-2-2--5-3--5-5-5-5-5---2-2-2-2--5-3--5-5-5-5--3-3-3-------------------|
E|--0-0-0-0--3----------------0-0-0-0--3-------------------------------------|

   Chorus
E|---------------------------------------------------------------------------|
B|---------------------------------------------------------------------------|
G|--4-4-4-4-4-4----------------4-4-4-4-4-4-----------5-4-5-------------------|
D|--4-4-4-4-4-4--3-3-3-3-3-3---4-4-4-4-4-4--3-3-3-3--5-4-5-------------------|
A|--2-2-2-2-2-2--3-3-3-3-3-3---2-2-2-2-2-2--3-3-3-3--3-2-3-------------------|
E|---------------1-1-1-1-1-1----------------1-1-1-1--------------------------|
 
E|---------------------------------------------------------------------------|
B|---------------------------------------------------------------------------|
G|--4-4-4-4-4-4----------------4-4-4-4-4-4-----------5-4-5-------------------|
D|--4-4-4-4-4-4--3-3-3-3-3-3---4-4-4-4-4-4--3-3-3-3--5-4-5-------------------|
A|--2-2-2-2-2-2--3-3-3-3-3-3---2-2-2-2-2-2--3-3-3-3--3-2-3-------------------|
E|---------------1-1-1-1-1-1----------------1-1-1-1--------------------------|
 Intro
E|-----------------|------------|--------------------------------------------|
B|-----------(x4)--|------------|----*-*---*-*---*-*-------------------(x3)--|
G|--5-4-5-4--------|--7--5-4-5--|--4-4-4-4-4-4-4-4-4--5-4-5------------------|
D|--5-4-5-4--------|--7--5-4-5--|--4-4-4-4-4-4-4-4-4--5-4-5------------------|
A|--3-2-3-2--------|--5--3-2-3--|--2-2-2-2-2-2-2-2-2--3-2-3------------------|
E|-----------------|------------|--------------------------------------------|

E|---------------------------------|-----------------------------------------|
B|----*-*---*-*---*-*--------------|-----------------------------------------|
G|--4-4-4-4-4-4-4-4-4--7-5-4-5-----|-----------5--7-7-7-7-7------------------|
D|--4-4-4-4-4-4-4-4-4--7-5-4-5--2--|--2-2-2--5-5--7-7-7-7-7------------------|
A|--2-2-2-2-2-2-2-2-2--5-3-2-3--2--|--2-2-2--5-3--5-5-5-5-5------------------|
E|------------------------------0--|--0-0-0--3-------------------------------|

   Verse
E|---------------------------------------------------------------------------|
B|---------------------------------------------------------------------(x2)--|
G|-------------5--7-7-7-7-7--------------5--7-7-7-7--5-5-5-------------------|
D|--2-2-2-2--5-5--7-7-7-7-7---2-2-2-2--5-5--7-7-7-7--5-5-5-------------------|
A|--2-2-2-2--5-3--5-5-5-5-5---2-2-2-2--5-3--5-5-5-5--3-3-3-------------------|
E|--0-0-0-0--3----------------0-0-0-0--3-------------------------------------|

   Chorus
E|---------------------------------------------------------------------------|
B|---------------------------------------------------------------------------|
G|--4-4-4-4-4-4----------------4-4-4-4-4-4-----------5-4-5-------------------|
D|--4-4-4-4-4-4--3-3-3-3-3-3---4-4-4-4-4-4--3-3-3-3--5-4-5-------------------|
A|--2-2-2-2-2-2--3-3-3-3-3-3---2-2-2-2-2-2--3-3-3-3--3-2-3-------------------|
E|---------------1-1-1-1-1-1----------------1-1-1-1--------------------------|
 
E|---------------------------------------------------------------------------|
B|---------------------------------------------------------------------------|
G|--4-4-4-4-4-4----------------4-4-4-4-4-4-----------5-4-5-------------------|
D|--4-4-4-4-4-4--3-3-3-3-3-3---4-4-4-4-4-4--3-3-3-3--5-4-5-------------------|
A|--2-2-2-2-2-2--3-3-3-3-3-3---2-2-2-2-2-2--3-3-3-3--3-2-3-------------------|
E|---------------1-1-1-1-1-1----------------1-1-1-1--------------------------|


E|-------|
B|-------|
G|--4----|
D|--4----|
A|--2----|
E|-------|
            
Hard to play? Try these video lessons and learn fast. | Correct




comments powered by Disqus
↑ Back to top | Tablatures and chords are parodies/interpretations of the original songs. You may use it for private study, scholarship, research or language learning purposes only