» » »

Hardcore Pride Tabs (ver.1)

Artists:  A B C D E F G H I J K L M N O P Q R S T U V W X Y Z # 

Hardcore Pride Tabs (ver.1)

Ten Yard Fight
Rating:
0/5 (0 votes)

Hard to play? Try these video lessons and learn fast.
                
x\= pick slide 
/ = silde down 
\ = silde up 
pm= palm mute 

Intro: 
|-------------------------------------------------------| 
|-------------------------------------------------------| 
|-5\4/5\4----5\4/5\4----5\4/5\4----5\4/5\4/--7\-5\4/5\4-| 
|-5\4/5\4----5\4/5\4----5\4/5\4----5\4/5\4/--7\-5\4/5\4-| 
|-3\2/3\2----3\2/3\2----3\2/3\2----3\2/3\2/--5\-3\2/3\2-| 
|---------x\--------------------x\----------------------| 

|------------------------------------------|----------------------| 
|-------------------play-3-times-----------|----------------------| 
|-4-4-4-4--4--4-4-4-4--4--4-4-4-4--5\4/5\4-|-4-4-4-4--4--/7-5\4/5-| 
|-4-4-4-4--4--4-4-4-4--4--4-4-4-4--5\4/5\4-|-4-4-4-4--4--/7-5\4/5-| 
|-2-2-2-2--2--2-2-2-2--2--2-2-2-2--3\2/3\2-|-2-2-2-2--2--/5-3\2/3-| 
|------------------------------------------|----------------------| 
PM----- PM----- PM----- PM----- 

|-----------------------------------------------------------------| 
|----------------------------play-3-times-------------------------| 
|-----------------7-7-7-7-7-7-7-7-----------------7-7-7-7-5-5-5-5-| 
|-2-2-2-2-5-5-5-5-7-7-7-7-7-7-7-7-2-2-2-2-5-5-5-5-7-7-7-7-5-5-5-5-| 
|-2-2-2-2-5-5-5-5-5-5-5-5-5-5-5-5-2-2-2-2-5-5-5-5-5-5-5-5-3-3-3-3-| 
|-0-0-0-0-3-3-3-3-----------------0-0-0-0-3-3-3-3-----------------| 

|-------------------------------------------------------------------------| 
|------------------------------play-2-times-------------------------------| 
|-4-4-4-4-4-4-4-4-----------------4-4-4-4-4-4-4-4-----------------5\4/5\4-| 
|-4-4-4-4-4-4-4-4-3-3-3-3-3-3-3-3-4-4-4-4-4-4-4-4-3-3-3-3-3-3-3-3-5\4/5\4-| 
|-2-2-2-2-2-2-2-2-3-3-3-3-3-3-3-3-2-2-2-2-2-2-2-2-3-3-3-3-3-3-3-3-3\2/3\2-| 
|-----------------1-1-1-1-1-1-1-1-----------------1-1-1-1-1-1-1-1---------| 

|--------------------------------------------| 
|--------------------------------------------| 
|-5\4/5\4----5\4/5\4----5\4/5\4/--7\-5\4/5\4-| 
|-5\4/5\4----5\4/5\4----5\4/5\4/--7\-5\4/5\4-| 
|-3\2/3\2----3\2/3\2----3\2/3\2/--5\-3\2/3\2-| 
|--------------------x/----------------------| 

|------------------------------------------|----------------------| 
|-----------------play-3-times-------------|----------------------| 
|-4-4-4-4--4--4-4-4-4--4--4-4-4-4--5\4/5\4-|-4-4-4-4--4--/7-5\4/5-| 
|-4-4-4-4--4--4-4-4-4--4--4-4-4-4--5\4/5\4-|-4-4-4-4--4--/7-5\4/5-| 
|-2-2-2-2--2--2-2-2-2--2--2-2-2-2--3\2/3\2-|-2-2-2-2--2--/5-3\2/3-| 
|------------------------------------------|----------------------| 
PM----- PM----- PM----- PM----- 

|-----------------------------------------------------------------| 
|----------------------------play-2-times-------------------------| 
|-----------------7-7-7-7-7-7-7-7-----------------7-7-7-7-5-5-5-5-| 
|-2-2-2-2-5-5-5-5-7-7-7-7-7-7-7-7-2-2-2-2-5-5-5-5-7-7-7-7-5-5-5-5-| 
|-2-2-2-2-5-5-5-5-5-5-5-5-5-5-5-5-2-2-2-2-5-5-5-5-5-5-5-5-3-3-3-3-| 
|-0-0-0-0-3-3-3-3-----------------0-0-0-0-3-3-3-3-----------------| 

|-------------------------------------------------------------------------| 
|-----------------------------play-2-times--------------------------------| 
|-4-4-4-4-4-4-4-4-----------------4-4-4-4-4-4-4-4-----------------5\4/5\4-| 
|-4-4-4-4-4-4-4-4-3-3-3-3-3-3-3-3-4-4-4-4-4-4-4-4-3-3-3-3-3-3-3-3-5\4/5\4-| 
|-2-2-2-2-2-2-2-2-3-3-3-3-3-3-3-3-2-2-2-2-2-2-2-2-3-3-3-3-3-3-3-3-3\2/3\2-| 
|-----------------1-1-1-1-1-1-1-1-----------------1-1-1-1-1-1-1-1---------| 
            
Hard to play? Try these video lessons and learn fast. | Correct




comments powered by Disqus
↑ Back to top | Tablatures and chords are parodies/interpretations of the original songs. You may use it for private study, scholarship, research or language learning purposes only