» » »

Ten Yard Fight, Glory Bound Tabs (ver.1)

Artists:  A B C D E F G H I J K L M N O P Q R S T U V W X Y Z # 

Glory Bound Tabs (ver.1)

Ten Yard Fight Tabs
Rating:
0/5 (0 votes)
Glory Bound lessons Tabs too difficult? Try these video lessons and learn fast
                GLORY BOUND – Ten Yard Fight 

e|-------------|----------------------|-------------------------------| 
B|-------------|----------------------|-------------------------------| 
G|-------------|----------------------|-------------------------------| 
D|----10-----7-|----10-----7--5--7--5-|-Play both of these 3X---------| 
A|-7--8--10--5-|-7--8--10--5--3--5--3-|-------------------------------| 
E|-5-----8-----|-5-----8--------------|-------------------------------| 

e|-----------|-----------|--------------------------------------------| 
B|-----------|-----------|--------------------------------------------| 
G|-----------|-----------|--------------------------------------------| 
D|-2--4--5-x2|--5--4--4--|--------------------------------------------| 
A|-0--2--3---|--3--2--2--|--------------------------------------------| 
E|-----------|-----------|--------------------------------------------| 

e|-------------|----------------------|-------------------------------| 
B|-------------|----------------------|-------------------------------| 
G|-------------|----------------------|-------------------------------| 
D|----10-----7-|----10-----7--5--7--5-|-Play both of these 2X---------| 
A|-7--8--10--5-|-7--8--10--5--3--5--3-|-------------------------------| 
E|-5-----8-----|-5-----8--------------|-------------------------------| 

e|-----------|------------|-------------|---------|------------|------| 
B|-----------|------------|-------------|---------|------------|------| 
G|-----------|------------|-------------|---------|------------|------| 
D|-2--4--5-x2|--5--4--4---|--5--4--4--2-|-5--4--5-|-2--5--4--5-|-x3---| 
A|-0--2--3---|--3--2--2--7|--3--2--2--0-|-3--2--3-|-0--3--2--3-|------| 
E|-----------|-----------5|-------------|---------|------------|------| 
^ 
Hold 
e|------------|-------------------------------------------------------| 
B|------------|-------------------------------------------------------| 
G|------------|-------------------------------------------------------| 
D|-5--4--4--2-|-x2----------------------------------------------------| 
A|-3--2--2--0-|-------------------------------------------------------| 
E|------------|-------------------------------------------------------| 
            
Submit corrections

comments powered by Disqus
↑ Back to top | Ten Yard Fight Tabs for Glory Bound. Lyrics for acoustic guitar and electric guitar. Tablatures and chords are parodies/interpretations of the original songs. You may use it for private study, scholarship, research or language learning purposes only