» » »

Frame Of Mind Tabs (ver.1)

Artists:  A B C D E F G H I J K L M N O P Q R S T U V W X Y Z # 

Frame Of Mind Tabs (ver.1)

Ten Yard Fight
Rating:
0/5 (0 votes)

Hard to play? Try these video lessons and learn fast.
                
Intro 
E|---------------------------------------------------------------------------| 
B|---------*-*-*--*-*-*--*-*-------------------------------------------------| 
G|--9---5--7-7-7--5-5-5--7-5---9---12--11-11-11-11--7-7-7-7------------------| 
D|--9-2-5--7-7-7--5-5-5--7-5---9-2-12--11-11-11-11--7-7-7-7------------------| 
A|--7-2-3--5-5-5--3-3-3--5-3---7-2-10--9--9--9--9---5-5-5-5------------------| 
E|----0--------------------------0-------------------------------------------| 

E|---------------------------------------------------------------------------| 
B|---------------------------------------------------------------------------| 
G|--9-9-9-9-10-9-9-9-9-9-10-9-9-9-9-9-10--5-5-5-5--7-7-7--7-5----------------| 
D|--9-9-9-9-10-9-9-9-9-9-10-9-9-9-9-9-10--5-5-5-5--7-7-7--7-5----------------| 
A|--7-7-7-7/8--7-7-7-7-7/8--7-7-7-7-7/8---3-3-3-3--5-5-5--5/3----------------| 
E|---------------------------------------------------------------------------| 

E|---------------------------------------------------------------------------| 
B|---------------------------------------------------------------------------| 
G|--9-9-9-9-10-9-9-9-9-9-10-9-9-9-9-9-10---12-12-12-12-12-12--9--------------| 
D|--9-9-9-9-10-9-9-9-9-9-10-9-9-9-9-9-10---12-12-12-12-12-12--9--------------| 
A|--7-7-7-7/8--7-7-7-7-7/8--7-7-7-7-7/8----10-10-10-10-10-10--7--------------| 
E|---------------------------------------------------------------------------| 

Verse 
E|---------------------------------------------------------------------------| 
B|-------------------------------------------*-*-*-*-*-----------------------| 
G|--9-9-9-9-7-10--9-9-9-9--5-5-5--7-7-7--9-9-9-9-9-9-9-----------------------| 
D|--9-9-9-9-7-10--9-9-9-9--5-5-5--7-7-7--9-9-9-9-9-9-9-----------------------| 
A|--7-7-7-7-5/8---7-7-7-7--3-3-3--5-5-5--7-7-7-7-7-7-7-----------------------| 
E|---------------------------------------------------------------------------| 

E|---------------------------------------------------------------------------| 
B|---------------------------------------------------------------------------| 
G|--9-9-9-9-7-10--9-9-9-9--12-12-12-12-12-12--11-11-11-----------------------| 
D|--9-9-9-9-7-10--9-9-9-9--12-12-12-12-12-12--11-11-11-----------------------| 
A|--7-7-7-7-5/8---7-7-7-7--10-10-10-10-10-10--9--9--9------------------------| 
E|---------------------------------------------------------------------------| 

Repeat Verse 

Chorus 
E|---------------------------------------------------------------------------| 
B|-------------------------------------------------------------------(x2)----| 
G|--7-7-7-7-7-7--7-6--*-*-*-*-*-*-*---7-7-7-7-7-7--7-6--9-9-9-9-9-9----------| 
D|--7-7-7-7-7-7--5-4--2-2-2-2-2-2-2---7-7-7-7-7-7--5-4--9-9-9-9-9-9----------| 
A|--5-5-5-5-5-5-------2-2-2-2-2-2-2---5-5-5-5-5-5-------7-7-7-7-7-7----------| 
E|--------------------0-0-0-0-0-0-0------------------------------------------| 

Repeat Verse 

Repeat Chorus 

Outro 
E|---------------------------------------------------------------------------|| 
B|---------------------------------------------------------------------------|| 
G|--9-9-9-9-9-9-9-9-9-9--*-*--9----------------------------------------------|| 
D|--9-9-9-9-9-9-9-9-9-9--2-2--9----------------------------------------------|| 
A|--7-7-7-7-7-7-7-7-7-7--2-2--7----------------------------------------------|| 
E|-----------------------0-0-------------------------------------------------|| 
            
Hard to play? Try these video lessons and learn fast. | Correct




comments powered by Disqus
↑ Back to top | Tablatures and chords are parodies/interpretations of the original songs. You may use it for private study, scholarship, research or language learning purposes only