» » »

Drug Free Nation Tabs (ver.1)

Artists:  A B C D E F G H I J K L M N O P Q R S T U V W X Y Z # 

Drug Free Nation Tabs (ver.1)

Ten Yard Fight
Rating:
0/5 (0 votes)

Hard to play? Try these video lessons and learn fast.
                
Intro 
E|--------------|----------------------------------------------|-------------| 
B|--------------|----------------------------------------------|-------------| 
G|--*-*--*------|--*-*-*----*-*-*---------*-*-*----*-*---------|-------------| 
D|--2-2--5-6-3--|--2-2-2-3--2-2-2--5-6-5--2-2-2-3--2-2--5-6-3--|--2-2--5-6-3-| 
A|--2-2--5-6-3--|--2-2-2-3--2-2-2--5-6-5--2-2-2-3--2-2--5-6-3--|--2-2--5-6-3-| 
E|--0-0--3-4-1--|--0-0-0-1--0-0-0--3/4/3--0-0-0-1--0-0--3-4-1--|--0-0--3-4-1-| 

Verse 
E|---------------------------------------------------------------------------| 
B|---------------------------------------------------------------------(x2)--| 
G|--*-*-*----*-*-*---------*-*-*----*-*--------------------------------------| 
D|--2-2-2-3--2-2-2--5-6-5--2-2-2-3--2-2--5-6-3-------------------------------| 
A|--2-2-2-3--2-2-2--5-6-5--2-2-2-3--2-2--5-6-3-------------------------------| 
E|--0-0-0-1--0-0-0--3/4/3--0-0-0-1--0-0--3-4-1-------------------------------| 

E|---------------------------------------------------------------------------| 
B|---------------------------------------------------------------------(x2)--| 
G|---------------------------------------------------------------------------| 
D|--2-2-2-2--3-2-3-2-3--2-2--6-5---2-2-2-2--3-2--6-5-6-5--3------------------| 
A|--2-2-2-2--3-2-3-2-3--2-2--6-5---2-2-2-2--3-2--6-5-6-5---------------------| 
E|--0-0-0-0--1-0-1-0-1--0-0--4-3---0-0-0-0--1-0--4/3-4/3--1------------------| 

Bridge 
E|---------------------------------------------------------------------------| 
B|---------------------------------------------------------------------(x2)--| 
G|---------*-*-*--*-*-*------------------------------------------------------| 
D|--2-3-5--6-5-3--2-5-3------------------------------------------------------| 
A|--2-3-5--6-5-3--2-5-3------------------------------------------------------| 
E|--0-1-3--4-3-1--0-3-1------------------------------------------------------| 

Chorus 
E|-----------------------------------------------------------------|---------| 
B|-----------------------------------------------------------(x2)--|---------| 
G|-----------------------------------------------------------------|---------| 
1. D|-----------------------------------------------------------------|--2------| 
A|--7-7-7-7-7-7--8-8-8-8-8--10-10-10-10--11-10-8--7-8-10-----------|--2------| 
E|-----------------------------------------------------------------|--0------| 

E|-----------------------------------------------------------------|---------| 
B|-----------------------------------------------------------(x2)--|---------| 
G|---------------------------------*-*-*--*-*-*--------------------|---------| 
2. D|--2-2-2-2-2--3-3-3-3-3--5-5-5-5--6-5-3--2-3-5--------------------|--2------| 
A|--2-2-2-2-2--3-3-3-3-3--5-5-5-5--6-5-3--2-3-5--------------------|--2------| 
E|--0-0-0-0-0--1-1-1-1-1--3-3-3-3--4-3-1--0-1-3--------------------|--0------| 

Outro 
E|-------------------------------------------------|-------------------------|| 
B|-------------------------------------------(x4)--|-------------------------|| 
G|--3-3-3-3--5-5-5-5-----------6-6-6--5-5-5--------|--3-5--------------------|| 
D|--3-3-3-3--5-5-5-5--5-5-5-5--6-6-6--5-5-5--------|--3-5-5-5----------------|| 
A|--1-1-1-1--3-3-3-3--5-5-5-5--4-4-4--3-3-3--------|--1-3-5-5----------------|| 
E|--------------------3-3-3-3----------------------|------3-3----------------|| 
            
Hard to play? Try these video lessons and learn fast. | Correct




comments powered by Disqus
↑ Back to top | Tablatures and chords are parodies/interpretations of the original songs. You may use it for private study, scholarship, research or language learning purposes only