» » »

Ten Yard Fight, Back On Track Tabs (ver.1)

Artists:  A B C D E F G H I J K L M N O P Q R S T U V W X Y Z # 

Back On Track Tabs (ver.1)

Ten Yard Fight Tabs
 Rating:
4/5 (4 votes)
Back On Track lessons Tabs too difficult? Try these video lessons and learn fast
1
                
Intro 
E|---------------------------|-----------------------------------------------| 
B|---------------------------|-----------------------------------------------| 
G|--9-x-x-9-x-x-9-x-x-9-x-x--|--9-9-9-10-7--9-9-9-12-10--9-9-9-10-7--9-------| 
D|--9-x-x-9-x-x-9-x-x-9-x-x--|--9-9-9-10-7--9-9-9-12-10--9-9-9-10-7--9-------| 
A|--7-x-x-7-x-x-7-x-x-7-x-x--|--7-7-7-8--5--7-7-7-10-8---7-7-7-8--5--7-------| 
E|---------------------------|-----------------------------------------------| 

Verse/Chorus 
E|---------------------------------------------------------------------------| 
B|--------------------------------------------------------(x4)---------------| 
G|--9-9-9-10-7--9-9-9-12-10--9-9-9-10-7--9-9-9--7-7-7------------------------| 
D|--9-9-9-10-7--9-9-9-12-10--9-9-9-10-7--9-9-9--7-7-7------------------------| 
A|--7-7-7-8--5--7-7-7-10-8---7-7-7-8--5--7-7-7--5-5-5------------------------| 
E|---------------------------------------------------------------------------| 

Bridge 
E|---------------------------------------------------------------------------| 
B|---------------------------------------------------------------------------| 
G|--9-9-9-10-7--9-9-9-12-10--9-9-9-10-7--9-----------------------------------| 
D|--9-9-9-10-7--9-9-9-12-10--9-9-9-10-7--9-----------------------------------| 
A|--7-7-7-8--5--7-7-7-10-8---7-7-7-8--5--7-----------------------------------| 
E|---------------------------------------------------------------------------| 

Repeat Verse/Chorus 

Outro 
E|---------------------------------------------------------------------------|| 
B|---------------------------------------------------------------------------|| 
G|--9---9---9---9-----9------------------------------------------------------|| 
D|--9---9---9---9-----9------------------------------------------------------|| 
A|--7---7---7---7-----7------------------------------------------------------|| 
E|---------------------------------------------------------------------------|| 
            
Submit corrections

comments powered by Disqus
↑ Back to top | Ten Yard Fight Tabs for Back On Track. Lyrics for acoustic guitar and electric guitar. 1 Tablatures and chords are parodies/interpretations of the original songs. You may use it for private study, scholarship, research or language learning purposes only