» » »

Ten Yard Fight, Back It Up Tabs (ver.1)

Artists:  A B C D E F G H I J K L M N O P Q R S T U V W X Y Z # 

Back It Up Tabs (ver.1)

Ten Yard Fight Tabs
 Rating:
4/5 (4 votes)
Back It Up lessons Tabs too difficult? Try these video lessons and learn fast
                
Intro 
e|--------------------------------------------------------------------| 
B|--------------------------------------------------------------------| 
G|--------------------------------------------------------------------| 
D|--9-----/12 ---9-----/12 ---9-----/12 ---9-----/12 -----------------| 
A|--9-----/12 ---9-----/12 ---9-----/12 ---9-----/12 -----------------| 
E|--7-----/10 ---7-----/10 ---7-----/10 ---7-----/10 -----------------| 

Verse x3 
e|--------------------------------------------------------------------| 
B|--------------------------------------------------------------------| 
G|--------------------------------------------------------------------| 
D|-------------7-5---------------7----------------7-5---------------7-| 
A|-9-9-9-9-9-9-5-3--7-7-7-7-7--5-5----9-9-9-9-9-9-5-3--7-7-7-7-7--5-5-| 
E|-7-7-7-7-7-7------5-5-5-5-5--3------7-7-7-7-7-7------5-5-5-5-5--3---| 

Chorus x2 
e|--------------------------------------------------------------------| 
B|--------------------------------------------------------------------| 
G|--------------------------------------------------------------------| 
D|--9-9-9 ----------9-9-9 ----------9-9-9 ----------7---5-------------| 
A|--9-9-9 ----------9-9-9 ----------9-9-9 ----------5---3---5---7-----| 
E|--7-7-7 ----------7-7-7 ----------7-7-7 ------------------3---5-----| 
back to back/shoulder to shoulder/positive youth,straight,clean and sober 

e|--------------------------------------------------------------------| 
B|--------------------------------------------------------------------| 
G|--------------------------------------------------------------------| 
D|--9-9-9-9-9-9-9-9-9-9-9-9-9-9-9-9-9---7---5-------------------------| 
A|--9-9-9-9-9-9-9-9-9-9-9-9-9-9-9-9-9---5---3---5---7-----------------| 
E|--7-7-7-7-7-7-7-7-7-7-7-7-7-7-7-7-7-----------3---5-----------------| 
of our minds and our streets... 

Repeat verse 
Repeat chorus 

Break.1 
e|-------------------------------------------|------------------------| 
B|-------------------------------------------|------------------------| 
G|-------------------------------------------|------------------------| 
D|-9-9-9 ------9-9-9 ------9-9-9 ------9-9-9 |--9----/12 --9----/12 --| 
A|-9-9-9 ------9-9-9 ------9-9-9 ------9-9-9 |--9----/12 --9----/12 --| 
E|-7-7-7 ------7-7-7 ------7-7-7 ------7-7-7 |--7----/10 --7----/10 --| 
back it up, back it up, back it up, back it up 

Break.2 
e|---PM.***---------PM.********--------PM.***----------PM*********----| 
B|--------------------------------------------------------------------| 
G|--------------------------------------------------------------------| 
D|-----------3-\5----------------5--------------3-\5----------------5-| 
A|--9-9-9-9--5-\3--5-5-5-5--7-7--3-----9-9-9-9--5-\3--5-5-5-5--7-7--3-| 
E|--7-7-7-7--------3-3-3-3--5-5--------7-7-7-7--------3-3-3-3--5-5----| 
--> play 4 times, last time stop here| 
Outro = Verse 
            
Submit corrections

comments powered by Disqus
↑ Back to top | Ten Yard Fight Tabs for Back It Up. Lyrics for acoustic guitar and electric guitar. Tablatures and chords are parodies/interpretations of the original songs. You may use it for private study, scholarship, research or language learning purposes only