» » »

Actions Speak Tabs (ver.1)

Artists:  A B C D E F G H I J K L M N O P Q R S T U V W X Y Z # 

Actions Speak Tabs (ver.1)

Ten Yard Fight
Rating:
0/5 (0 votes)

Hard to play? Try these video lessons and learn fast.
                
Intro 
E|---------------------------------------------------------------------------| 
B|---------------------------------------------------------------------------| 
G|--------------------------------------5-4----------------------------------| 
D|--4-x-x-x--4-x-x-x--4--4--4--4-4-4-4--5-4--2-2-2-2--4--4-------------------| 
A|--4-x-x-x--4-x-x-x--4--4--4--4-4-4-4--3-2--2-2-2-2--4--4-------------------| 
E|--2-x-x-x--2-x-x-x--2--2--2--2-2-2-2-------0-0-0-0--2--2-------------------| 

Verse 
E|---------------------------------------------------------------------------| 
B|---------------------------------------------------------------------(x2)--| 
G|-----------5-4--7-7-7-7-7-7------------5-4---------------------------------| 
D|--4-4-4-4--5-4--7-7-7-7-7-7---4-4-4-4--5-4--2-2-2-2-2-2--------------------| 
A|--4-4-4-4--3-2--5-5-5-5-5-5---4-4-4-4--3-2--2-2-2-2-2-2--------------------| 
E|--2-2-2-2---------------------2-2-2-2-------0-0-0-0-0-0--------------------| 

Bridge 
E|---------------------------------------------------------------------------| 
B|---------------------------------------------------------------------------| 
G|---------------------------------------------------------------------------| 
D|--4-x-x-x--4-x-x-x--4-4-4-4-4-4-4------------------------------------------| 
A|--4-x-x-x--4-x-x-x--4-4-4-4-4-4-4------------------------------------------| 
E|--2-x-x-x--2-x-x-x--2-2-2-2-2-2-2------------------------------------------| 

Repeat Verse/Bridge 

Chorus 
E|--------------------------------|------------------------------------------| 
B|--------------------------(x2)--|------------------------------------(x2)--| 
G|-------5-4-7--------5-4---------|-------5-4-7--9-10-9--------5-4-----------| 
D|--4-4--5-4-7---4-4--5-4-2-------|--4-4--5-4-7-----------4-4--5-4--2-2-2-2--| 
A|--4-4--3-2-5---4-4--3-2-2-------|--4-4--3-2-5--7-8--7---4-4--3-2--2-2-2-2--| 
E|--2-2----------2-2------0-------|--2-2------------------2-2-------0-0-0-0--| 

Outro 
E|---------------------------------------------------------------------------| 
B|---------------------------------------------------------------------------| 
G|---------------------------------------------------------------------------| 
D|--4-x-x-x--4-x-x-x--4-4-4-4-4-4-4------------------------------------------| 
A|--4-x-x-x--4-x-x-x--4-4-4-4-4-4-4------------------------------------------| 
E|--2-x-x-x--2-x-x-x--2-2-2-2-2-2-2------------------------------------------| 
            
Hard to play? Try these video lessons and learn fast. | Correct




comments powered by Disqus
↑ Back to top | Tablatures and chords are parodies/interpretations of the original songs. You may use it for private study, scholarship, research or language learning purposes only