» » »

Oh My Dear Tabs (ver.1)

Artists:  A B C D E F G H I J K L M N O P Q R S T U V W X Y Z # 

Oh My Dear Tabs (ver.1)

Tenth Avenue North
Rating:
5/5 (1 vote)

Hard to play? Try these video lessons and learn fast.
                (Intro)
This is the intro on the guitar for Oh My Dear. I saw some others and they were wrong. 
it is. I included my 2 original intros capoed the 3rd fret(they go to the chords with the 
fret capoed).
Tuning: Normal (standard)

regular
e --------------------------------------------|
b --------------------------------------------|
g ----0---2-0----------0---2-0----------------|
d --3---3-----3-0h3--3---3-----3-2--2-2-0-2-3-|
a --------------------------------------------|
e --------------------------------------------|

3rd fret. this version sounds the same as above.
its played on the piano.
e ----------------------------------------|
b ----------------------------------------|
g ----------------------------------------|
d -0-2-0-4-2-0----0-2-0-4-2-0-----------0-|
a -------------2--------------4--4-4-2-4--|
e ----------------------------------------|

3rd fret. this is a higher pitch but sounds great.
e ---0---2-0--------0---2-0----------------|
b -3---3-----3-0--3---3-----3-2--2-2-0-2-3-|
g -----------------------------------------|
d -----------------------------------------|
a -----------------------------------------|
e -----------------------------------------|

I am 100% sure there are no mistakes I checked everything over 2 times. Please vote 5 stars!
            
Hard to play? Try these video lessons and learn fast. | Correct




comments powered by Disqus
↑ Back to top | Tablatures and chords are parodies/interpretations of the original songs. You may use it for private study, scholarship, research or language learning purposes only