>
 >
Lovesick

Lovesick Guitar Tabs

Tenth Avenue North - Lovesick chords, tabs, tablatures, lyrics

Guitar lessons | Add/correct | Request | Top 50 tabs Artists:  A B C D E F G H I J K L M N O P Q R S T U V W X Y Z 0-9

Lovesick Guitar Tabs – Tenth Avenue North

CD, Sheet music, Poster

Do you like Lovesick? Share with your friends now
TabsTabs v2
Lovesick by Tenth Avenue North

Capo 3rd

Intro
e|----------------------------------------------|
B|----------------------------------------------|
G|--21-----------21--2p1-----21-----------2-1---|
D|--22---2---2---22-----2----22---2---2---222---|
A|----0h1-0h1-0----------------0h1-0h1-0--------|
E|00-----------00----------00-----------00------|

Verse
e|----------------------------------------------|
B|----------------------------------------------|
G|--21--2p1-----21-----------21--2p1-----21-----|
D|--22-----2----22---2---2---22-----2----22-----|
A|----------------0h1-0h1-0---------------------|
E|00----------00-----------00----------00-------|

e|----------------------------------------------|
B|---------0----0-------------------------------|
G|--21--2p1-----1---21-----------21--/9---------|
D|--22--------------22---2---2---22-------------|
A|------------22------0h1-0h1-0-----------------|
E|22--------------00------------00--------------|

e|----------------------------------------------|
B|----------------------------------------------|
G|--21----------21-----------21--2p1-----21-----|
D|--22----------22---2---2---22-----2----22-----|
A|----------------0h1-0h1-0---------------------|
E|00----------00-----------00----------00-------|

e|----------------------------------------------|
B|---------0----0-------------------------------|
G|--21--2p1-----1---21-----------21-------------|
D|--22--------------22---2---2---22-------------|
A|------------22------0h1-0h1-0-----------------|
E|22--------------00------------00--------------|

Chorus
e|--4------0------------------------------------|
B|--5-----2-------------------------------------|
G|--6----2-------1h2p1--------------------------|  x3
D|--6---2-------------2-------------------------|
A|44---0----------------------------------------|
E|------------00--------------------------------|

e|-----------0----------------------------------|
B|-----------2----------------------------------|
G|1--21---2--3----------------------------------|
D|---22---2--3----------------------------------|
A|-----------0----------------------------------|
E|-22---22--------------------------------------|

Verse
e|----------------------------------------------|
B|----------------------------------------------|
G|--21------------------------------------------|
D|--22---2---2----------------------------------|
A|----0h1-0h1-0---------------------------------|
E|00--------------------------------------------|

A E A E A E A E


Sorry, thatís as far as I got. If someone else wants to finish, thatíd be awesome. Enjoy 
praise God!





Comments


Popular Tenth Avenue North tabs & chords
Beyond Words Chords
Beyond Words 2 Chords
Calling Out Chords
Hallelujah Chords
Healing Begins 2 Chords
You Are More Intro 3 Tabs
You Are More Intro 4 Tabs
All I Have Ukulele
God Of Love Ukulele
Tale Of A King Ukulele


Song lyrics



↑ Back to top | Tablatures and chords are parodies/interpretations of the original songs. You may use it for private study, scholarship, research or language learning purposes only
© 2014 AZChords.com Contact us | Privacy policy | DMCA | Add/correct tabs | Request tabs | Top 50 tabs