» » »

Hold My Heart Bass tabs (ver.1)

Artists:  A B C D E F G H I J K L M N O P Q R S T U V W X Y Z # 

Hold My Heart Bass tabs (ver.1)

Tenth Avenue North
Rating:
5/5 (1 vote)

Hard to play? Try these video lessons and learn fast.
                Intro-No bass

Verse 1
G----------------------------------}
D----------------------------------}
A--0~----------3~------------------}  (Play 3 times)
E-------1~-------------3~----------}

Pre-Chorus
(I'm on my knees...)
G----------------------------------}
D----------------------------------}
A----------------------------------}  (Play 2 times)
E-1~---------------3~--------------}

Chorus 1
(One tear in....)
G----------------------------------------------------------}
D----------------------------------------------------------}
A-333333333333--000000000000-------------------------------}  (Play 2 times)
E----------------------------111111111111--333333333333----}

Verse 2
(I've been so afraid....)
Verse 1
G----------------------------------}
D----------------------------------}
A--0-0~---------3-3~---------------}  (Play 3 times)
E-------1-1~----------3-3~---------}

Pre-Chorus
(I'm on my knees...)
G----------------------------------}
D----------------------------------}
A----------------------------------}  (Play 2 times)
E-1~---------------3~--------------}

Chorus 2
(One tear in....)
G----------------------------------------------------------}
D----------------------------------------------------------}
A-333333333333--000000000000-------------------------------}  (Play 2 times)
E----------------------------111111111111--333333333333----}

Bridge
(So many questions without...)
G------------------------------------------------------------------------}
D------------------------------------------------------------------------}
A-5555555-0000000-33333333----------5~---------3~-000-------0~-----------}  
E--------------------------33333333------------------333-111--3~-1~------}

Chorus 3
No bass
 
Chorus 4
(One Life...)
G----------------------------------------------------------}
D----------------------------------------------------------}
A-333333333333--000000000000-------------------------------}  (Play 2 times)
E----------------------------111111111111--333333333333----}

The bass actually dosnt start until 1:21 but you can play it anyway you want. Please rate.

Thanks,
ML
            
Hard to play? Try these video lessons and learn fast. | Correct




comments powered by Disqus
↑ Back to top | Tablatures and chords are parodies/interpretations of the original songs. You may use it for private study, scholarship, research or language learning purposes only