» » »

Tenth Avenue North, Empty My Hands Tabs (ver.1)

Artists:  A B C D E F G H I J K L M N O P Q R S T U V W X Y Z # 

Empty My Hands Tabs (ver.1)

Tenth Avenue North Tabs
Rating:
5/5 (3 votes)
Empty My Hands lessons Tabs too difficult? Try these video lessons and learn fast
                -------------------------------------------------------------------------------
-------------------------------------------------------------------------------


Capo 5

Intro:
e|----------------------------------------------------|
B|---8-----8-----3-----3-----5-----5-----5-----5------|
G|---------0-----------0-----------0-----------0------|
D|------0-----0-----0-----0-----0-----0-----0-----0---| x4
A|---7-----------2-----------3-----------3------------|
E|----------------------------------------------------|

Verse:
e|----------------------------------------------------|
B|---8-----8-----5-----5-----3-----3-----7-----7------|
G|---------0-----------0-----------0-----------0------|
D|------0-----0-----0-----0-----0-----0-----0-----0---| x4
A|---7-----------3-----------2-----------5------------|
E|----------------------------------------------------|

Pre-Chorus:
e|----------------------------------------------------|
B|---------0-----------0-----------0-----------0------|
G|---------2-----------0-----------0-----------0------|
D|------2-----0-----2-----0-----0-----0-----4-----0---| x4
A|---------------3-----------------------5------------|
E|---0-----------------------3------------------------|

Chorus:
e|----------------------------------------------------|
B|---------0-----------0-----------0-----------0------|
G|---------0-----------0-----------0-----------0------|
D|------5-----5-----5-----5-----5-----5-----5-----5---|
A|---------------------------3-----------3------------|
E|---3-----------3------------------------------------|

e|----------------------------------------------------|
B|---------0-----------0-----------0-----------0------|
G|---------0-----------0-----------0-----------0------|
D|------5-----5-----5-----5-----5-----5-----5-----5---|
A|---------------------------5-----------5------------|
E|---0-----------0------------------------------------|

Repeat Chorus, Intro 2x, Verse, Pre-Chorus, and Chorus 2x

Bridge (strum chords):
	         C2                                 G
	Cause my mind is like a building burning down
	  C2                          Em                   D
	I need Your grace to keep me, keep me from the ground
	       C2                            G
	And my heart is just a prisoner of war
	  C2                            Em                D
	A slave to what it wants and to what I'm fighting for

Repeat Chorus 2x, and Intro 8x

END
            
Submit corrections

comments powered by Disqus
↑ Back to top | Tenth Avenue North Tabs for Empty My Hands. Lyrics for acoustic guitar and electric guitar. Tablatures and chords are parodies/interpretations of the original songs. You may use it for private study, scholarship, research or language learning purposes only