» » »

Beloved Tabs (ver.2)

Artists:  A B C D E F G H I J K L M N O P Q R S T U V W X Y Z # 

Beloved Tabs (ver.2)

Tenth Avenue North
Rating:
0/5 (0 votes)

Hard to play? Try these video lessons and learn fast.
                capo 3
tuning EAGDAE
intro
e ----0------0------0------0------0------0------0------0------------|
a ---0-0----0-0----0-0----0-0----0-0----0-0----0-0----0-0-----------|
g --6---6--4---4--2---2--4---4--6---6--4---4--2---2--4---4----------|
d -7------6------4------6------7------6------4------6---------------|
a ------------------------------------------------------------------|
e ------------------------------------------------------------------|

verse
e ------------------------------------------------------------------|
a ------------------------------------------------------------------|
g ---2---2---6---7---2---2---6---7---4---2--------------------------|
d ---2---2---6---7---2---2---6---7---5---1--------------------------|
a -----------4---5-----------4---5---5---2--------------------------|
e -------2---------------2-----------3------------------------------|

chorus
e ------------------------------------------------------------------|
a ------------------------------------------------------------------|
g ---2---2---2--1--2---2---2---1-2---2---2---2--1--2---2---2---1-2--|
d ---2-------2--2--2---2-------2-2---2-------2--2--2---2-------2-2--|
a -------m-----------------m---2-2-------m-----------------m---2-2--|
e ---2---m-------------2---m---------2---m-------------2---m--------|

bridge
e ------------------------------------------------------------------|
a ------------------------------------------------------------------|
g ---2---1---2---2---1---2---2---1---2---2---2---1------------------|
d -------2---2-------2---2-------2-------2-------2------------------|
a ---m---2-------m---2-------m---2---m-------m---2------------------|
e ---m-----------m-------2---m-------m---2---m----------------------|

m = muted

intro 2x
verse
chorus
intro 1x
verse
chorus
bridge
chorus
intro

Love of My life
 Look deep in My eyes
 There you will find what you need
 Give Me your life
 The lust and the lies
 The past you're afraid I might see
 You've been running away from Me (yeah)

chorus

You're My beloved
 Lover I'm yours
 Death shall not part us
 It's you I died for
 For better or worse
 Forever we'll be
 My Love it unites us
 And it binds you to Me
 It's a mystery

Love of My life
 Look deep in My eyes
 There you will find what you need
 I'm the Giver of life
 I'll clothe you in white
 My immaculate bride you will be
Oh, come running home to Me (yeah now)

bridge

You've been a mistress, My wife
 You're chasing lovers that won't satisfy
 Won't you let Me make you My bride
 You will drink of My lips
And you'll taste new life


 if the tab doesn't line up paste into notepad
            
Hard to play? Try these video lessons and learn fast. | Correct




comments powered by Disqus
↑ Back to top | Tablatures and chords are parodies/interpretations of the original songs. You may use it for private study, scholarship, research or language learning purposes only