» » »

Ten Shekel Shirt, Come Away Tabs (ver.1)

Artists:  A B C D E F G H I J K L M N O P Q R S T U V W X Y Z # 

Come Away Tabs (ver.1)

Ten Shekel Shirt Tabs
Rating:
0/5 (0 votes)
Come Away lessons Tabs too difficult? Try these video lessons and learn fast
                "Come Away"
Ten Shekel Shirt

Intro  [Em - C - G - D]
   
                                                                   2x
e|-------------------------------------------------------------------|
B|-------------------------------------------------------------------|
G|----------------------------------------------------------7-7-7-7--|
D|-----2-----2-----10--0--10-10-10-10-(0)-5-5-5-5--x-x-x-x--7-7-7-7--|
A|--0--2--0--2--0--10--0--10-10-10-10-(0)-5-5-5-5--x-x-x-x--5-5-5-5--| 
D|--0--2--0--2--0--10--0--10-10-10-10-(0)-5-5-5-5--x-x-x-x-----------|


Verses [Em - C - G - D]
                       
                       8x
e|----------3------------|
B|-------5----5-------3--|
G|--2/4----------2h4-----|
D|-----------------------|
A|-----------------------| 
D|-----------------------|


Pre-Chorus [Em - C - G - D]

e|------------------------------------------------------------------|
B|------------------------------------------------------------------|
G|---------------------------------------------------------7-7-7-7--|
D|-----2-----2-----10--0--10-10-10-10-x--5-5-5-5--x-x-x-x--7-7-7-7--|
A|--0--2--0--2--0--10--0--10-10-10-10-x--5-5-5-5--x-x-x-x--5-5-5-5--| 
D|--0--2--0--2--0--10--0--10-10-10-10-x--5-5-5-5--x-x-x-x-----------|

e|---------------------------------------------------------------|
B|---------------------------x--x--x-----------------------------|
G|---------------------------x--x--x--------------------7-7-7-7--|
D|-----2-----2-----10--0--10-x--x--x--5-5-5-5--x-x-x-x--7-7-7-7--|
A|--0--2--0--2--0--10--0--10-x--x--x--5-5-5-5--x-x-x-x--5-5-5-5--| 
D|--0--2--0--2--0--10--0--10-x--x--x--5-5-5-5--x-x-x-x-----------|


Chorus [G - A - Em - C - Em - F - D]

e|------------------------------------------------------|
B|------------------------------------------------------|
G|----------------------5-5------------7-7x-x-x-7-7--7--|
D|--5-5-5h7-7-7--7-2--2-5-5--2-2--3-3--7-7x-x-x-7-7--7--|
A|--5-5-5h7-7-7--7-2--2-3-3--2-2--3-3--5-5x-x-x-5-5--5--|
D|--5-5-5h7-7-7--7-2--2------2-2--3-3-------------------|

e|----------------------------------------|
B|----------------------------------------|
G|----------------------5-5------------7--|
D|--5-5-5h7-7-7--7-2--2-5-5--2-2--3-3--7--|
A|--5-5-5h7-7-7--7-2--2-3-3--2-2--3-3--5--|
D|--5-5-5h7-7-7--7-2--2------2-2--3-3-----|
            
Submit corrections

comments powered by Disqus
↑ Back to top | Ten Shekel Shirt Tabs for Come Away. Lyrics for acoustic guitar and electric guitar. Tablatures and chords are parodies/interpretations of the original songs. You may use it for private study, scholarship, research or language learning purposes only