>
 >
Wherever You Are

Wherever You Are Guitar Tabs

Ten Second Epic - Wherever You Are chords, tabs, tablatures, lyrics

Guitar lessons | Add/correct | Request | Top 50 tabs Artists:  A B C D E F G H I J K L M N O P Q R S T U V W X Y Z 0-9

Wherever You Are Guitar Tabs – Ten Second Epic

CD, Sheet music, Poster

Do you like Wherever You Are? Share with your friends now
Tabs
-------------------------------------------------------------------------------
-------------------------------------------------------------------------------

       This is only the rhythm guitar because my ear is not that good and I can't figure out the 
     solo and lead part during chorus. This is my first tab, so it might be little off but meh.
     I know it's not 100% correct but it gives you an idea of what to play. Enjoy!

Tuning:Standard
        Verse  ( Clean )
e|--8------8------------------------------------------------------------------|
B|--8------8------------------------------------------------------------------|
G|--10-----10-----------------------------------------------------------------|
D|--10-----10-----------------------------------------------------------------|
A|--8------8------------------------------------------------------------------|
E|---------8------------------------------------------------------------------|
      ^ at some points you could do the full bar but it's up to you, I prefer
        the full bar for most the verse. You have to figure out the strumming 
        yourself.

     Pre-Chorus   ( Clean )
e|----8-~--------------------------------------------------------------------|
B|----8-~--------------------------------------------------------------------|
G|----10-~-------------------------------------------------------------------|
D|----10-~-------------------------------------------------------------------|
A|----8-~--------------------------------------------------------------------|
E|----8-~--------------------------------------------------------------------|
         ^ Either let it ring out or just keep Strumming. I like to throw in a 
           bit of both.
      
        Chorus ( Distortion )
e|---------------------------------------------------------------------------|
B|---------------------------------------------------------------------------|
G|-333333-----------------77777777--55555555---------------------------------|
D|-333333-------33333333--77777777--55555555---------------------------------|
A|-111111--0-0--33333333--55555555--33333333---------------------------------|
E|--------------11111111-----------------------------------------------------|

e|--------------------------------------------8------------------------------|
B|--------------------------------------------8------------------------------|
G|-333333-----------------77777777--55555555--10-----------------------------|
D|-333333-------33333333--77777777--55555555--10-----------------------------|
A|-111111--0-0--33333333--55555555--33333333--8------------------------------|
E|--------------11111111----------------------8------------------------------|
                                              ^ Figure out strumming pattern.
      Verse ( clean )

e|--8------8-----------------------------------------------------------------|
B|--8------8-----------------------------------------------------------------|
G|--10-----10----------------------------------------------------------------|
D|--10-----10----------------------------------------------------------------|
A|--8------8-----------------------------------------------------------------|
E|---------8-----------------------------------------------------------------|
        ^ You have to figure out the strumming 
        yourself.
           Pre-Chorus (Clean)
e|---8-~---------------------------------------------------------------------|
B|---8-~---------------------------------------------------------------------|
G|---10-~--------------------------------------------------------------------|
D|---10-~--------------------------------------------------------------------|
A|---8-~---------------------------------------------------------------------|
E|---8-~---------------------------------------------------------------------|
           Chorus ( Distortion )

e|---------------------------------------------------------------------------|
B|---------------------------------------------------------------------------|
G|-333333-----------------77777777--55555555---------------------------------|
D|-333333-------33333333--77777777--55555555---------------------------------|
A|-111111--0-0--33333333--55555555--33333333---------------------------------|
E|--------------11111111-----------------------------------------------------|

e|--------------------------------------------8------------------------------|
B|--------------------------------------------8------------------------------|
G|-333333-----------------77777777--55555555--10-----------------------------|
D|-333333-------33333333--77777777--55555555--10-----------------------------|
A|-111111--0-0--33333333--55555555--33333333--8------------------------------|
E|--------------11111111----------------------8------------------------------|
                                              ^ Figure out strumming pattern.
     
       Bridge ( Clean )

e|---8-~----8-~------8--8-~-------8--8-~-------8---8-------------------------|
B|---8-~----8-~---------8-~----------8-~-----------8-------------------------|
G|---10-~---10-~--10----10-~--10-----10-~--10------10------------------------|
D|---10-~---10-~--------10-~---------10-~----------10------------------------|
A|---8-~----8-~---------8-~----------8-~-----------8-------------------------|
E|---8-~----8-~---------8-~----------8-~-----------8-------------------------|
                       
                                                   ^ Strum 8 times, all down.

        Solo ( Rhythm )( Distortion )

e|---------------------------------------------------------------------------|
B|---------------------------------------------------------------------------|
G|-333333-----------------77777777--55555555---------------------------------|
D|-333333-------33333333--77777777--55555555---------------------------------|
A|-111111--0-0--33333333--55555555--33333333---------------------------------|
E|--------------11111111-----------------------------------------------------| X2

       Chorus ( Distortion )


e|---------------------------------------------------------------------------|
B|---------------------------------------------------------------------------|
G|-333333-----------------77777777--55555555---------------------------------|
D|-333333-------33333333--77777777--55555555---------------------------------|
A|-111111--0-0--33333333--55555555--33333333---------------------------------|
E|--------------11111111-----------------------------------------------------|

e|--------------------------------------------8------------------------------|
B|--------------------------------------------8------------------------------|
G|-333333-----------------77777777--55555555--10-----------------------------|
D|-333333-------33333333--77777777--55555555--10-----------------------------|
A|-111111--0-0--33333333--55555555--33333333--8------------------------------|
E|--------------11111111----------------------8------------------------------|
                                              ^ Figure out strumming pattern.

     Than play the Chorus again. You will probably have to listen to the song 
     a couple times to get the timing right and strumming pasterns. That is basically 
     the song. Enjoy! Going to try and do bass next.

************************************

| /   slide up
| \   slide down
| h   hammer-on
| p   pull-off
| ~   vibrato
| +   harmonic
| x   Mute note
| b   Bend
| pb  Pre-bend
| br  Bend release
| pbr Pre-bend release
| brb Bend release bend

************************************





Comments


Popular Ten Second Epic tabs & chords
Point Blank, Victoria Bass Tabs
Everyday Chords
Between Today And Tomorrow Intro Tabs
Count Yourself In Tabs
Count Yourself In 1 Tabs
Count Yourself In 2 Tabs
Everyday Tabs
Old Habits Die Hard Tabs
Welcome To Wherever You Are Tabs
Everyday Ukulele


Song lyrics



↑ Back to top | Tablatures and chords are parodies/interpretations of the original songs. You may use it for private study, scholarship, research or language learning purposes only
© 2014 AZChords.com Contact us | Privacy policy | DMCA | Add/correct tabs | Request tabs | Top 50 tabs