» » »

Point Blank, Victoria Bass tabs (ver.1)

Artists:  A B C D E F G H I J K L M N O P Q R S T U V W X Y Z # 

Point Blank, Victoria Bass tabs (ver.1)

Ten Second Epic
Rating:
0/5 (0 votes)

Hard to play? Try these video lessons and learn fast.
                Hey this is my second tab ever. Help me out if theres something wrong in here...it feels 
but help is always nice too :) here it goes

Listen to ALL of the strumming in this song and how long to go for!

Slide = /
Ring Note = ~

Start 0:05
G------------------------------------------------------------------|
D------------------------------------------------------------------|
A--55--555--555--555-/7--99--999--999---912119---------------------|
E------------------------------------------------------------------|

G------------------------------------------------------------------|
D------------------------------------------------------------------|
A--55--555--555--555-/7--99--999--999--7~--------------------------|
E------------------------------------------------------------------|

Verse  0:16  (Up and down Strums, listen to how long)
G------------------------------------------------------------------|
D------------------------------------------------------------------|
A--5555555555555555------------------------------------------------|
E------------------22222222222255-55-55555555----------------------| Time 2

Pre Chorus  0:38
G------------------------------------------------------------------|
D------------------------------------------------------------------|
A--555~---222~---555~---2~-----------------------------------------|
E------------------------------------------------------------------|


Chorus  0:51
G------------------------------------------------------------------|
D------------------------------------------------------------------|
A--------------------------------2222222222------------------------|
E--222222222200000000005555555555----------------------------------|

G------------------------------------------------------------------|
D------------------------------------------------------------------|
A---------------------------------5~-------------------------------|
E--222222222200000000005555555555----------------------------------|

Verse 2  1:19
G------------------------------------------------------------------|
D------------------------------------------------------------------|
A--5555555555555555------------------------------------------------|
E------------------22222222222255-55-55555555----------------------| Time 2

Pre-Chorus  1:41
G------------------------------------------------------------------|
D------------------------------------------------------------------|
A--555~---222~---555~---2~-----------------------------------------|
E------------------------------------------------------------------|

Chorus  1:53
G------------------------------------------------------------------|
D------------------------------------------------------------------|
A--------------------------------2222222222------------------------|
E--222222222200000000005555555555----------------------------------|

G------------------------------------------------------------------|
D------------------------------------------------------------------|
A---------------------------------5~-------------------------------|
E--222222222200000000005555555555----------------------------------|

Bridge  2:21
G------------------------------------------------------------------|
D------------------------------------------------------------------|
A---------------3---3---5555------3---3---5555------3---3---5555---|
E--2222------1h3-1h3-----------1h3-1h3-----------1h3-1h3-----------|

2:50
G------------------------------------------------------------------|
D------------------------------------------------------------------|
A-----3---3---3---3---3--55-55-55-55---55--------------------------|
E--1h3-1h3-1h3-1h3-1h3---------------------------------------------| Times 3

Outro  3:10
G------------------------------------------------------------------|
D------------------------------------------------------------------|
A--5555---9999--7777---555555--77777--99999--77777-----------------|
E------------------------------------------------------------------|

Rest of the Song
G------------------------------------------------------------------|
D------------------------------------------------------------------|
A--555555/7--7777/9--999999/7--7777/5--55555-----------------------|
E------------------------------------------------------------------|

End
G------------------------------------------------------------------|
D------------------------------------------------------------------|
A--555555/7--7777/9--999999/7--7777/5--5~--------------------------|
E------------------------------------------------------------------|

Another good song by TSE!
-Chop
            
Hard to play? Try these video lessons and learn fast. | Correct




comments powered by Disqus
↑ Back to top | Tablatures and chords are parodies/interpretations of the original songs. You may use it for private study, scholarship, research or language learning purposes only