>
 >
Old Habits Die Hard

Old Habits Die Hard Guitar Tabs

Ten Second Epic - Old Habits Die Hard chords, tabs, tablatures, lyrics

Guitar lessons | Add/correct | Request | Top 50 tabs Artists:  A B C D E F G H I J K L M N O P Q R S T U V W X Y Z 0-9

Old Habits Die Hard Guitar Tabs – Ten Second Epic

CD, Sheet music, Poster

Do you like Old Habits Die Hard? Share with your friends now
Bass TabsTabs
-------------------------------------------------------------------------------
                        Old Habits Die Hard - 10 Second Epic
-------------------------------------------------------------------------------

Tuning:Standard
                               Intro x1 Guitar 1
e|---------------------------------------------|
B|---------------------------------------------|
G|4-------7------4-------2-------7------7+-----|
D|4-x16---7-x8---4-x8----2-x16---7-x8---7+-x8--|
A|2-------5------2-------0-------5------5+-----|
E|---------------------------------------------|       .
   . -|       .
                              Intro Part 2 Guitar 1
(Be sure to barr both b and e strings at the 10th fret while hitting 12th)
Also i don't think both guitars have to play the slide from the a5 (a power chord) to
b5 so if you can't play the riffs and the slide it's no problem.
e|----------10h12p10------------10-----10-----10-12p10-----------------------|
B|----10h12---------12-----10h12--10h12--10h12--------10-10-10-10-10---------|
G|---------------------------------------------------------------------------|
D|7/9------------------7/9---------------------------------------------------|
A|7/9------------------7/9---------------------------------------------------|
E|5/7------------------5/7---------------------------------------------------|

e|-----10-----10-----10-14-x8-12-x8--------10-x5---------10h12/15/12-10------|
B|10h12--10h12--10h12-----------------10h12---------10h12--------------12----|
G|---------------------------------------------------------------------------|
D|---------------------------------7/9-----------7/9-------------------------|
A|---------------------------------7/9-----------7/9-------------------------|
E|---------------------------------5/7-----------5/7-------------------------|
                             Guitar 2 fill, end of intro
e|---------------------------------------------------------------------------|
B|---------------------------------------------------------------------------|
G|4---7---9---11-------------------------------------------------------------|
D|x---x---x---x--------------------------------------------------------------|
A|2---5---7---9--------------------------------------------------------------|
E|---------------------------------------------------------------------------|
                            Guitar 1 fill, end of intro

e|15-------------------------------------------------------------------------|
B|15-x16---------------------------------------------------------------------|
G|12-------------------------------------------------------------------------|
D|---------------------------------------------------------------------------|
A|---------------------------------------------------------------------------|
E|---------------------------------------------------------------------------|
 Intro Guitar 2 x2  Guitar rest during first fill, then plays this again 2x
e|---------------------------------------------------------------------------|
B|---------------------------------------------------------------------------|
G|------7+-------------------------------------------------------------------|
D|7/9---7+-x10---------------------------------------------------------------|
A|7/9---5+-------------------------------------------------------------------|
E|5/7------------------------------------------------------------------------|
Verse Guitar 1 (Not entirely sure about this part as its almost impossible to hear but
close)
e|------------12-12-10-10------10-10-12-12------12-12-10-10------------------|
B|-------10-10-----------10-x8-------------10-x8-----------------------------|
G|7-7------------------------------------------------------------------------|
D|7-7------------------------------------------------------------------------|
A|5-5------------------------------------------------------------------------|
E|---------------------------------------------------------------------------|        .
 .  .  .  .     .  .  .  . .    .  .   .  .

e|---------10-10-12-12-------------------------------------------------------|
B|------8-8------------------------------------------------------------------|
G|7-7------------------------------------------------------------------------|
D|7-7------------------------------------------------------------------------|
A|5-5------------------------------------------------------------------------|
E|---------------------------------------------------------------------------|      . . ..  . .
                          Verse Guitar 2 x2
e|---------------------------------------------------------------------------|
B|---------------------------------------------------------------------------|
G|7-7---7-7/9-7---7----------------------------------------------------------|
D|7-7---7-7/9-7---7----------------------------------------------------------|
A|5-5---5-5/7-5---5----------------------------------------------------------|
E|---------------------------------------------------------------------------|
                           Pre-Chorus, Both Guitars
e|---------------------------------------------------------------------------|
B|---------------------------------------------------------------------------|
G|4---7---9---11--14------7/9------------------------------------------------|
D|x---x---x---x---x-------7/9-5----------------------------------------------|
A|2---5---7---9---12------5/7-5----------------------------------------------|
E|----------------------------3----------------------------------------------|
                    Pre Chorus Continued Guitar 2 plays this
e|---------------------------------------------------------------------------|
B|---------------------------------------------------------------------------|
G|--------7/9---------------7/9----------------------------------------------|
D|5-------7/9-x2-5---5------7/9----------------------------------------------|
A|5-x16---5/7----5---5-x8---5/7----------------------------------------------|
E|3--------------3---3-------------------------------------------------------|.
       .

                              Guitar one plays this
e|---------------------------------------------------------------------------|
B|-----------------------------7/9-------------------------------------------|
G|7/9------2-2------7/9--------7/9-------------------------------------------|
D|7/9-x2---2-2-x6---7/9-x2-5---5/7-------------------------------------------|
A|5/7------0-0------5/7----5-------------------------------------------------|
E|-------------------------3-------------------------------------------------|           .

                                Guitar 1 fill
e|10-------------------------------------------------------------------------|
B|---10-7-10-10-7------------------------------------------------------------|
G|---------------9-----------------------------------------------------------|
D|---------------------------------------------------------------------------|
A|---------------------------------------------------------------------------|
E|---------------------------------------------------------------------------|
           Chorus Guitar 2 (Palm muted A5's played in triplets twice)
e|---------------------------------------------------------------------------|
B|---------------------------------------------------------------------------|
G|4-------7------2-------2------4------7------2------------------------------|
D|4-x8----7-x8---2-x12---2-x6---4-x8---7-x8---2-x16--------------------------|
A|2-------5------0-------0------2------5------0------------------------------|
E|---------------------------------------------------------------------------|
           .

                               Chorus Guitar 1
e|10-9---------10-9-----------------------10-9--------10-9-------------------|
B|-----10----------10--------------------------10---------10-----------------|
G|-------12-x4-------11-x4---2-------2-----------12-x4------11-x4---2--------|
D|---------------------------2-x12---2-x6---------------------------2-x16----|
A|---------------------------0-------0------------------------------0--------|
E|---------------------------------------------------------------------------|
                       .
                              Verse 2 Guitar 1 x2
e|10-9--9--------------------------------------------------------------------|
B|----10--x8-----------------------------------------------------------------|
G|---------------------------------------------------------------------------|
D|---------------------------------------------------------------------------|
A|---------------------------------------------------------------------------|
E|---------------------------------------------------------------------------|
                              Verse 2 Guitar 2
e|---------------------------------------------------------------------------|
B|---------------------------------------------------------------------------|
G|---------------------------------------------------------------------------|
D|2---4-x5-2---4-x5-2---4-x5-2---7-x3-2-x18---2---4-x5---4-x2-2-x4---7-x3----|
A|0---2----0---2----0---4----0---5----0-------0---2------2----0------5-------|
E|---------------------------------------------------------------------------|.   .    .
 .    .   .    .   .    .       .   .      .    .      .
Both Guitars repeat Pre-Chorus except Guitar 1 fill just before chorus during co-ome
is this
e|---------------------------------------------------------------------------|
B|---------------------------------------------------------------------------|
G|7---9---14-----------------------------------------------------------------|
D|x---x---x------------------------------------------------------------------|
A|5---7---12-----------------------------------------------------------------|
E|---------------------------------------------------------------------------|
guitars play chorus then the bridge goes like this
                                  Guitar 2
e|------------------------------------------------------------------------------|
B|------------------------------------------------------------------------------|
G|4------7------2---------------------------------------------------------------|
D|4-x8---7-x8---2--x8-----------------------------------------------------------|
A|2------5------0---------------------------------------------------------------|
E|------------------------------------------------------------------------------|
                                  Guitar 1
e|10-9--------10-9-----------------------------------------------------------|
B|----10--x4------10-x4------------------------------------------------------|
G|------12----------12----2--------------------------------------------------|
D|------------------------2-x24----------------------------------------------|
A|------------------------0--------------------------------------------------|
E|---------------------------------------------------------------------------|
       Bridge part 2 Guitar 1 (Clean) "You hate what you don't know.."
e|5------2------0------------------------------------------------------------|
B|7------4------2------------------------------------------------------------|
G|7------4------2------------------------------------------------------------|
D|7-x2---4-x2---2------------------------------------------------------------|
A|5------2------0------------------------------------------------------------|
E|5------2------0------------------------------------------------------------|
                  Both Guitars repeat first chorus x2 then end on
e|---------------------------------------------------------------------------|
B|---------------------------------------------------------------------------|
G|7/9-----------7---9---4----------------------------------------------------|
D|7/9-x2----5---x---x---x----------------------------------------------------|
A|5/7-------5---5---7---2----------------------------------------------------|
E|----------3----------------------------------------------------------------|
So, that's it great song, great band.  Questions, corrections, death threats can be sent
my e-mail at the top.  Have fun! :)
| .  Palm Mute
| /  slide up
| \  slide down
| h  hammer-on
| p  pull-off
| ~  vibrato
| +  harmonic
| x  Mute note
===============================================================================





Comments


Popular Ten Second Epic tabs & chords
Avenue Days Bass Tabs
Old Habits Die Hard Bass Tabs
Point Blank, Victoria Bass Tabs
Between Today And Tomorrow Intro Tabs
Count Yourself In Tabs
Count Yourself In 1 Tabs
Everyday Tabs
Home In The Heartland Intro Tabs
Welcome To Wherever You Are Tabs
Wherever You Are Tabs


Song lyrics



↑ Back to top | Tablatures and chords are parodies/interpretations of the original songs. You may use it for private study, scholarship, research or language learning purposes only
© 2014 AZChords.com Contact us | Privacy policy | DMCA | Add/correct tabs | Request tabs | Top 50 tabs