» » »

Ten Second Epic, Old Habits Die Hard Bass tabs (ver.1)

Artists:  A B C D E F G H I J K L M N O P Q R S T U V W X Y Z # 

Old Habits Die Hard Bass tabs (ver.1)

Ten Second Epic Tabs
Rating:
0/5 (0 votes)
Old Habits Die Hard lessons Tabs too difficult? Try these video lessons and learn fast
                intro (come in with drums, after the hi-hats are hit 3 times)
G|------------------------------------------------|
D|------------------------------------------------|
A|------------------------------------------------|  x1 
E|-55-7--55-7--10-1010---33333333-33333333-10-1010|
                                                 
G|-----------------------------------------|
D|-----------------------------------------|
A|-----------------------------------------|  x1 
E|-55-7--55-7--10-1010---33333333-55555555-|

verse 
G|------------------------------------------|
D|------------------------------------------|
A|------------------------------------------| x1  
E|-7-7-5h7-5h7--10-1010-33333333-33333333---|
                                                     
G|------------------------------------------------|
D|------------------------------------------------|
A|------------------------------------------------| x1  
E|-5h7-5h7-7-7-5h7-5h7--10-1010-33333333-55555555-|

Pre-Chorus                                   
G|------------------------------------------|
D|------------------------------------------|
A|--5h7-3h5------------5h7-3h5--------------|  x1
E|----------3-33333333---------5-55555555---|

G|--------------------------------|
D|--------------------------------|
A|--5h7-3h5-----------------------|  x1
E|----------3-33333333-55555555---|

Chorus  (thats stumming up and down, you can go slower if you want)
G|-------------------------------------------------------------|
D|-------------------------------------------------------------|
A|-------------------------------------------------------------|  x2
E|-3333333333333333-7777777777777777-555555555555555555555555--|

2nd verse   x1
G|----------------------------------------------------------------------|
D|----------------------------------------------------------------------|
A|----------------------------------------------------------------------|   
E|-5-5h7h5-7-7-5-5-5h7h5-7-7-5-5h7h5-7-7-5-5h7-7-7-3-33333333-3-33333333|

G|----------------------------------------------------|
D|----------------------------------------------------|
A|----------------------------------------------------| x1  
E|-5h7-5h7-7-7-5h7-5h7--10-1010-3-33333333-5-55555555-|

Pre-chorusx1   but end on E|-9-10-7-| this time
chorusx3 pause then do it 4 more times.

Outro
G|-----------------------------|
D|-----------------------------|
A|--5h7-3h5--------------------|  x1
E|----------3-33333333-9-10-7~-|
            

comments powered by Disqus
↑ Back to top | Ten Second Epic Bass for Old Habits Die Hard. Lyrics for acoustic guitar and electric guitar. Tablatures and chords are parodies/interpretations of the original songs. You may use it for private study, scholarship, research or language learning purposes only