» » »

Ten Second Epic, Everyday Tabs (ver.1)

Artists:  A B C D E F G H I J K L M N O P Q R S T U V W X Y Z # 

Everyday Tabs (ver.1)

Ten Second Epic Tabs
 Rating:
3.7/5 (6 votes)
Everyday lessons Tabs too difficult? Try these video lessons and learn fast
                Guitar 1

Intro

e|------------------------------------------------------------------|
b|--12-12-12-12-----------------------------------------------------|
g|---------------13-14-13-11-9-11-13------9----------------9--------|
d|-----------------------------------9-11--/11-9--9-11-9-11-11------|
a|------------------------------------------------------------------|
E|------------------------------------------------------------------|


e|------------------------------------------------------------------|
b|--12-12-12-12-----------------------------------------------------|
g|---------------13-14-13-11-9-11-13------9---------9-11-13-13-11-9-|
d|-----------------------------------9-11--/11-9--11----------------|
a|------------------------------------------------------------------|
E|------------------------------------------------------------------|

Verse 1

e|------------------------------------------------------------------|
b|------------------------------------------------------------------|
g|------------------2-2-2-2-2-2-2-2-----------------2-2-2-2-2-2-2-2-|
d|--2-2-2-2-2-2-2-2-2-2-2-2-2-2-2-2-2-2-2-2-2-2-2-2-2-2-2-2-2-2-2-2-|
a|--2-2-2-2-2-2-2-2-0-0-0-0-0-0-0-0-2-2-2-2-2-2-2-2-0-0-0-0-0-0-0-0-|
E|--0-0-0-0-0-0-0-0-----------------0-0-0-0-0-0-0-0-----------------|
          (palm mute)

e|--------4-4---2-2--4-5----------4-4---2-2------------------------------|
b|-----5~~5-5---4-4--5-5-------5~~5-5---4-4------------------------------|
g|-2-4~~~~4-4---4-4--4-4---2-4~~~~4-4---4-4------------------------------|
d|-------------------------------------------------------------------9-9-|
a|-----------------------------------------------------------7-8h9h11----|
E|------------------------------------------2--0-2-4--2-4-5--------------|

Chorus 1

e|------------------------------------------------------------------|
b|------------------------------------------------------------------|
g|------------------2-2-2-2-2-2-2-2-----------------2-2-2-2-2-2-2-2-|
d|--2-2-2-2-2-2-2-2-2-2-2-2-2-2-2-2-2-2-2-2-2-2-2-2-2-2-2-2-2-2-2-2-|
a|--2-2-2-2-2-2-2-2-0-0-0-0-0-0-0-0-2-2-2-2-2-2-2-2-0-0-0-0-0-0-0-0-|
E|--0-0-0-0-0-0-0-0-----------------0-0-0-0-0-0-0-0-----------------|

Verse 2

e|------------------------------------------------------------------|
b|------------------------------------------------------------------|
g|------------------2-2-2-2-2-2-2-2-----------------2-2-2-2-2-2-2-2-|
d|--2-2-2-2-2-2-2-2-2-2-2-2-2-2-2-2-2-2-2-2-2-2-2-2-2-2-2-2-2-2-2-2-|
a|--2-2-2-2-2-2-2-2-0-0-0-0-0-0-0-0-2-2-2-2-2-2-2-2-0-0-0-0-0-0-0-0-|
E|--0-0-0-0-0-0-0-0-----------------0-0-0-0-0-0-0-0-----------------|
          (palm mute)

e|--------4-4---2-2--4-5----------4-4---2-2------------------------------|
b|-----5~~5-5---4-4--5-5-------5~~5-5---4-4------------------------------|
g|-2-4~~~~4-4---4-4--4-4---2-4~~~~4-4---4-4------------------------------|
d|-------------------------------------------------------------------9-9-|
a|-----------------------------------------------------------7-8h9h11----|
E|------------------------------------------2--0-2-4--2-4-5--------------|

Chorus 2

e|------------------------------------------------------------------|
b|------------------------------------------------------------------|
g|------------------2-2-2-2-2-2-2-2-----------------2-2-2-2-2-2-2-2-|
d|--2-2-2-2-2-2-2-2-2-2-2-2-2-2-2-2-2-2-2-2-2-2-2-2-2-2-2-2-2-2-2-2-| 
a|--2-2-2-2-2-2-2-2-0-0-0-0-0-0-0-0-2-2-2-2-2-2-2-2-0-0-0-0-0-0-0-0-|
E|--0-0-0-0-0-0-0-0-----------------0-0-0-0-0-0-0-0-----------------|

e|------------------------------------------------------------------|
b|------------------------------------------------------------------|
g|------------------2-2-2-2-2-2-2-2-----------------2-2-2-2-2-2-2-2-|
d|--2-2-2-2-2-2-2-2-2-2-2-2-2-2-2-2-2-2-2-2-2-2-2-2-2-2-2-2-2-2-2-2-| 
a|--2-2-2-2-2-2-2-2-0-0-0-0-0-0-0-0-2-2-2-2-2-2-2-2-0-0-0-0-0-0-0-0-|
E|--0-0-0-0-0-0-0-0-----------------0-0-0-0-0-0-0-0-----------------|

Bridge

e|---------------------------------------------------------------------|
b|---------------------------------------------------------------------|
g|--2-2-2-2-4-4-4-4-6-6-6-6-6-6-6-4-4--2-2-2-2-4-4-4-4-6-6-6-6---------|
d|--2-2-2-2-4-4-4-4-6-6-6-6-6-6-6-4-4--2-2-2-2-4-4-4-4-6-6-6-6-2-2-2-2-| 
a|--0-0-0-0-2-2-2-2-4-4-4-4-4-4-4-2-2--0-0-0-0-2-2-2-2-4-4-4-4-2-2-2-2-|
E|-------------------------------------------------------------0-0-0-0-|

e|-----------------------------------------------|
b|-----------------------------------------------|
g|--2-2-2-2-4-4-4-4-5-5-5-5-5-5-5-5--------------|
d|--2-2-2-2-4-4-4-4-6-6-6-6-6-6-6-6--------------| 
a|--0-0-0-0-2-2-2-2-3-3-3-3-3-3-3-3--------------|
E|-----------------------------------------------|

e|------------------------------------------------------------------|
b|------------------------------------------------------------------|
g|------------------2-2-2-2-2-2-2-2-----------------2-2-2-2-2-2-2-2-|
d|--2-2-2-2-2-2-2-2-2-2-2-2-2-2-2-2-2-2-2-2-2-2-2-2-2-2-2-2-2-2-2-2-| 
a|--2-2-2-2-2-2-2-2-0-0-0-0-0-0-0-0-2-2-2-2-2-2-2-2-0-0-0-0-0-0-0-0-|
E|--0-0-0-0-0-0-0-0-----------------0-0-0-0-0-0-0-0-----------------|

Last Chorus

e|------------------------------------------------------------------|
b|------------------------------------------------------------------|
g|------------------2-2-2-2-2-2-2-2-6-6-6-6-4-4-4-4-----------------|
d|--2-2-2-2-2-2-2-2-2-2-2-2-2-2-2-2-6-6-6-6-4-4-4-4-4-4-4-4-4-4-4-4-| 
a|--2-2-2-2-2-2-2-2-0-0-0-0-0-0-0-0-4-4-4-4-2-2-2-2-4-4-4-4-4-4-4-4-|
E|--0-0-0-0-0-0-0-0---------------------------------2-2-2-2-2-2-2-2-|

e|---------------|
b|---------------|
g|---------------|
d|----------9-9--| 
a|--7-8h9h10-----|
E|---------------|

e|------------------------------------------------------------------|
b|------------------------------------------------------------------|
g|------------------2-2-2-2-2-2-2-2-----------------2-2-2-2-2-2-2-2-|
d|--2-2-2-2-2-2-2-2-2-2-2-2-2-2-2-2-2-2-2-2-2-2-2-2-2-2-2-2-2-2-2-2-| x2
a|--2-2-2-2-2-2-2-2-0-0-0-0-0-0-0-0-2-2-2-2-2-2-2-2-0-0-0-0-0-0-0-0-|
E|--0-0-0-0-0-0-0-0-----------------0-0-0-0-0-0-0-0-----------------|

e|------------------|
b|------------------|
g|--6-6--4-4--2-2---|
d|--6-6--4-4--2-2---| 
a|--4-4--2-2--0-0---|
E|------------------|

Guitar 2

Intro

e|------------------------------------------------------------------|
b|------------------------------------------------------------------|
g|------------------2-2-2-2-2-2-2-2-----------------2-2-2-2-2-2-2-2-|
d|--2-2-2-2-2-2-2-2-2-2-2-2-2-2-2-2-2-2-2-2-2-2-2-2-2-2-2-2-2-2-2-2-| 
a|--2-2-2-2-2-2-2-2-0-0-0-0-0-0-0-0-2-2-2-2-2-2-2-2-0-0-0-0-0-0-0-0-|
E|--0-0-0-0-0-0-0-0-----------------0-0-0-0-0-0-0-0-----------------|

Verse 1

(guitar 1 only)

e|---------------------------------------------------------------------|
b|---------------------------------------------------------------------|
g|--6-6-6-6-4-4-4-4-2-2-2-2-2-2-2-2-6-6-6-6-4-4-4-4-------------2--4-4-|
d|--6-6-6-6-4-4-4-4-2-2-2-2-2-2-2-2-6-6-6-6-4-4-4-4-------------2--4-4-| 
a|--4-4-4-4-2-2-2-2-0-0-0-0-0-0-0-0-4-4-4-4-2-2-2-2-------------0--2-2-|
E|-------------------------------------------------2--0-2-4--2-4-------|

Chorus 1

e|------------------------------------------------------------------|
b|------------------------------------------------------------------|
g|------------------2-2-2-2-2-2-2-2-----------------2-2-2-2-2-2-2-2-|
d|--2-2-2-2-2-2-2-2-2-2-2-2-2-2-2-2-2-2-2-2-2-2-2-2-2-2-2-2-2-2-2-2-|
a|--2-2-2-2-2-2-2-2-0-0-0-0-0-0-0-0-2-2-2-2-2-2-2-2-0-0-0-0-0-0-0-0-|
E|--0-0-0-0-0-0-0-0-----------------0-0-0-0-0-0-0-0-----------------|

Verse 2

(guitar 1 only)

e|---------------------------------------------------------------------|
b|---------------------------------------------------------------------|
g|--6-6-6-6-4-4-4-4-2-2-2-2-2-2-2-2-6-6-6-6-4-4-4-4-------------2--4-4-|
d|--6-6-6-6-4-4-4-4-2-2-2-2-2-2-2-2-6-6-6-6-4-4-4-4-------------2--4-4-| 
a|--4-4-4-4-2-2-2-2-0-0-0-0-0-0-0-0-4-4-4-4-2-2-2-2-------------0--2-2-|
E|-------------------------------------------------2--0-2-4--2-4-------|

Chorus 2

e|------------------------------------------------------------------|
b|------------------------------------------------------------------|
g|------------------2-2-2-2-2-2-2-2-----------------2-2-2-2-2-2-2-2-|
d|--2-2-2-2-2-2-2-2-2-2-2-2-2-2-2-2-2-2-2-2-2-2-2-2-2-2-2-2-2-2-2-2-| 
a|--2-2-2-2-2-2-2-2-0-0-0-0-0-0-0-0-2-2-2-2-2-2-2-2-0-0-0-0-0-0-0-0-|
E|--0-0-0-0-0-0-0-0-----------------0-0-0-0-0-0-0-0-----------------|

e|------------------------------------------------------------------|
b|------------------------------------------------------------------|
g|------------------2-2-2-2-2-2-2-2-----------------2-2-2-2-2-2-2-2-|
d|--2-2-2-2-2-2-2-2-2-2-2-2-2-2-2-2-2-2-2-2-2-2-2-2-2-2-2-2-2-2-2-2-| 
a|--2-2-2-2-2-2-2-2-0-0-0-0-0-0-0-0-2-2-2-2-2-2-2-2-0-0-0-0-0-0-0-0-|
E|--0-0-0-0-0-0-0-0-----------------0-0-0-0-0-0-0-0-----------------|

Bridge

e|---------------------------------------------------------------------|
b|---------------------------------------------------------------------|
g|--2-2-2-2-4-4-4-4-6-6-6-6-6-6-6-4-4--2-2-2-2-4-4-4-4-6-6-6-6---------|
d|--2-2-2-2-4-4-4-4-6-6-6-6-6-6-6-4-4--2-2-2-2-4-4-4-4-6-6-6-6-2-2-2-2-| 
a|--0-0-0-0-2-2-2-2-4-4-4-4-4-4-4-2-2--0-0-0-0-2-2-2-2-4-4-4-4-2-2-2-2-|
E|-------------------------------------------------------------0-0-0-0-|

e|-----------------------------------------------|
b|-----------------------------------------------|
g|--2-2-2-2-4-4-4-4-5-5-5-5-5-5-5-5--------------|
d|--2-2-2-2-4-4-4-4-6-6-6-6-6-6-6-6--------------| 
a|--0-0-0-0-2-2-2-2-3-3-3-3-3-3-3-3--------------|
E|-----------------------------------------------|

(guitar 1 only)

Last Chorus

e|----------------------------------------------------------------------|
b|----------------------------------------------------------------------|
g|------------------2-2-2-2-2-2-2-2-6-6-6-6-4-4-4-4---------------------|
d|--2-2-2-2-2-2-2-2-2-2-2-2-2-2-2-2-6-6-6-6-4-4-4-4-4-4-4-4-4-4-4-4~~~~-| 
a|--2-2-2-2-2-2-2-2-0-0-0-0-0-0-0-0-4-4-4-4-2-2-2-2-4-4-4-4-4-4-4-4~~~~-|
E|--0-0-0-0-0-0-0-0---------------------------------2-2-2-2-2-2-2-2~~~~-|

e|------------------------------------------------------------------|
b|------------------------------------------------------------------|
g|------------------2-2-2-2-2-2-2-2-----------------2-2-2-2-2-2-2-2-|
d|--2-2-2-2-2-2-2-2-2-2-2-2-2-2-2-2-2-2-2-2-2-2-2-2-2-2-2-2-2-2-2-2-|  x2 
a|--2-2-2-2-2-2-2-2-0-0-0-0-0-0-0-0-2-2-2-2-2-2-2-2-0-0-0-0-0-0-0-0-|
E|--0-0-0-0-0-0-0-0-----------------0-0-0-0-0-0-0-0-----------------|

e|------------------|
b|------------------|
g|--6-6--4-4--2-2---|
d|--6-6--4-4--2-2---| 
a|--4-4--2-2--0-0---|
E|------------------|
            
Submit corrections

comments powered by Disqus
↑ Back to top | Ten Second Epic Tabs for Everyday. Lyrics for acoustic guitar and electric guitar. Tablatures and chords are parodies/interpretations of the original songs. You may use it for private study, scholarship, research or language learning purposes only