>
 >
Count Yourself In 1

Count Yourself In 1 Guitar Tabs

Ten Second Epic - Count Yourself In 1 chords, tabs, tablatures, lyrics

Guitar lessons | Add/correct | Request | Top 50 tabs Artists:  A B C D E F G H I J K L M N O P Q R S T U V W X Y Z 0-9

Count Yourself In 1 Guitar Tabs – Ten Second Epic

CD, Sheet music, Poster

Do you like Count Yourself In 1? Share with your friends now
TabsTabs v2Tabs v3
INTRO(x2):
1---------------------------------------------------------------------------|
2--------------------5--3--3h5-3-------------------5---3------12------------|
3--------------------5--5--5---5-------------------5---5------12------------|
4---5---4---2----------------------5---4---2--------------------------------|
5--7---5---3------3---------------7---5---3------3----------10--------------|
6---------------------------------------------------------------------------|

VERSE:(x2)
1---------------------------------------------------------------------------|
2---------------------------------------------------------------------------|
3--9-9--7-7--5-5-5-5-5-5--9-9--7-7--5-5-5-5--12-12--------------------------|
4--9-9--7-7--5-5-5-5-5-5--9-9--7-7--5-5-5-5--12-12--------------------------|
5--7-7--5-5--3-3-3-3-3-3--7-7--5-5--3-3-3-3--10-10--------------------------|
6---------------------------------------------------------------------------|

PRE-CHORUS:
1----------------------------------------------------------------------------|
2--1-1-1-1-1-1-1-1-1-1-1-1---------------------------------------------------|
3----------------------------9-9--7-7--5-5-5-5--12-12--9-9--7-7--5-5-5-5-5-5-|
4--2-2-2-2-2-2-2-2-2-2-2-2---9-9--7-7--5-5-5-5--12-12--9-9--7-7--5-5-5-5-5-5-|
5--3-3-3-3-3-3-3-3-3-3-3-3---7-7--5-5--3-3-3-3--10-10--7-7--5-5--3-3-3-3-3-3-|
6----------------------------------------------------------------------------|

1---------------------------------------------------------------------------|
2---------------------------------------------------------------------------|
3--9-9--7-7--5-5-5-5--12----------------------------------------------------|
4--9-9--7-7--5-5-5-5--12----------------------------------------------------|
5--7-7--5-5--3-3-3-3--10----------------------------------------------------|
6---------------------------------------------------------------------------|

CHORUS:
1---------------------------------------------------------------------------|
2---------------------------------------------------------------------------|
3--9-----7-----5-----2-----9-----7------------------------------------------|
4--9(x8)-7(x8)-5(x8)-2(x8)-9(x8)-7------------------------------------------|
5--7-----5-----3-----0-----7-----5------------------------------------------|
6---------------------------------------------------------------------------|

AFTER CHORUS:
1---------------------------------------------------------------------------|
2---------------------------------------------------------------------------|
3--9-9--7-7--5-5-5-5-5-5--9-9--7-7--5-5-5-5--12-----------------------------|
4--9-9--7-7--5-5-5-5-5-5--9-9--7-7--5-5-5-5--12-----------------------------|
5--7-7--5-5--3-3-3-3-3-3--7-7--5-5--3-3-3-3--10-----------------------------|
6---------------------------------------------------------------------------|

VERSE(x2)
1---------------------------------------------------------------------------|
2---------------------------------------------------------------------------|
3--9-9--7-7--5-5-5-5-5-5--9-9--7-7--5-5-5-5--12-12--------------------------|
4--9-9--7-7--5-5-5-5-5-5--9-9--7-7--5-5-5-5--12-12--------------------------|
5--7-7--5-5--3-3-3-3-3-3--7-7--5-5--3-3-3-3--10-10--------------------------|
6---------------------------------------------------------------------------|

PRE-CHORUS:
1----------------------------------------------------------------------------|
2--1-1-1-1-1-1-1-1-1-1-1-1---------------------------------------------------|
3----------------------------9-9--7-7--5-5-5-5--12-12--9-9--7-7--5-5-5-5-5-5-|
4--2-2-2-2-2-2-2-2-2-2-2-2---9-9--7-7--5-5-5-5--12-12--9-9--7-7--5-5-5-5-5-5-|
5--3-3-3-3-3-3-3-3-3-3-3-3---7-7--5-5--3-3-3-3--10-10--7-7--5-5--3-3-3-3-3-3-|
6----------------------------------------------------------------------------|

1---------------------------------------------------------------------------|
2---------------------------------------------------------------------------|
3--9-9--7-7--5-5-5-5--12----------------------------------------------------|
4--9-9--7-7--5-5-5-5--12----------------------------------------------------|
5--7-7--5-5--3-3-3-3--10----------------------------------------------------|
6---------------------------------------------------------------------------|

CHORUS(x2):
1---------------------------------------------------------------------------|
2---------------------------------------------------------------------------|
3--9-----7-----5-----2-----9-----7-----5------------------------------------|
4--9(x8)-7(x8)-5(x8)-2(x8)-9(x8)-7(x8)-5(x16)-------------------------------|
5--7-----5-----3-----0-----7-----5-----3------------------------------------|
6---------------------------------------------------------------------------|

SOLO:
1-------------------------------------------------------------------------10-|
2------8-10--10b12--10b12r10--8--------10b12--10b12r10--8------8-10--10b12---|
3-7h9----------------------------9-7-----------------------9-7---------------|
4----------------------------------------------------------------------------|
5----------------------------------------------------------------------------|
6----------------------------------------------------------------------------|

1--------10--------10------------------------10--------10--------10---------|
2--10b12-----10b12-------10p8---10b12r10--8--10b12r10--10b12r10--10b12r10---|
3---------------------------------------------------------------------------|
4---------------------------------------------------------------------------|
5---------------------------------------------------------------------------|
6---------------------------------------------------------------------------|

BRIDGE(x2):
1---------------------------------------------------------------------------|
2--------------------5--3--3h5-3-------------------5---3------12------------|
3--------------------5--5--5---5-------------------5---5------12------------|
4---5---4---2----------------------5---4---2--------------------------------|
5--7---5---3------3---------------7---5---3------3----------10--------------|
6---------------------------------------------------------------------------|

CHORUS/OUTRO(x3)
1---------------------------------------------------------------------------|
2---------------------------------------------------------------------------|
3--9-----7-----5-----2-----9-----7-----5------------------------------------|
4--9(x8)-7(x8)-5(x8)-2(x8)-9(x8)-7(x8)-5(x16)-------------------------------|
5--7-----5-----3-----0-----7-----5-----3------------------------------------|
6---------------------------------------------------------------------------|





Comments


Popular Ten Second Epic tabs & chords
Old Habits Die Hard Bass Tabs
Point Blank, Victoria Bass Tabs
Everyday Chords
Between Today And Tomorrow Intro Tabs
Count Yourself In 2 Tabs
Everyday Tabs
Home In The Heartland Intro Tabs
Old Habits Die Hard Tabs
Welcome To Wherever You Are Tabs
Everyday Ukulele


Song lyrics



↑ Back to top | Tablatures and chords are parodies/interpretations of the original songs. You may use it for private study, scholarship, research or language learning purposes only
© 2014 AZChords.com Contact us | Privacy policy | DMCA | Add/correct tabs | Request tabs | Top 50 tabs