» » »

Ten Second Epic, Count Yourself In Tabs (ver.1)

Artists:  A B C D E F G H I J K L M N O P Q R S T U V W X Y Z # 

Count Yourself In Tabs (ver.1)

Ten Second Epic Tabs
 Rating:
3.5/5 (8 votes)
Count Yourself In lessons Tabs too difficult? Try these video lessons and learn fast
1
                -----------------------------------------------------------------------------
                         Count Yourself In - Ten Second
-----------------------------------------------------------------------------

Tuning:Standard
intro
e|----------------------------------7~-------|
B|--8-7-5--5-3-5-3-----8-7-5--5-3---8~-------|
G|--0-0-0--0-0-0-0-----0-0-0--0-0---0~-------|
D|-------------------------------------------|
A|-7-5-3--3-----------7-5-3--3---------------|
E|-------------------------------------------|
verse
e|----------------------------------|x8
B|----------------------------------|
G|-9-x-7-x-5-x-5-5-x-5-5-x----------|
D|-9-x-7-x-5-x-5-5-x-5-5-x----------|
A|-7-x-5-x-3-x-3-3-x-3-3-x----------|
E|----------------------------------|
chorus
e|--------------------------------------|x4    Verse then chorus again
B|--------------------------------------|
G|-9----7----5--------------------------|
D|-9-x8-7-x8-5-x8-7---------------------|
A|-7----5----3----7-x8------------------|
E|----------------5---------------------|
bridge
e|----------------------------------------|x4
B|-8----7----5----------------------------|
G|-x----7----5----------------------------|
D|-9-x8-7-x8-5-x8-7-----------------------|
A|-7----5----3----7-x8--------------------|
E|----------------5-----------------------|

You can figure out the strumming patterns, Enjoy.
            
Submit corrections

comments powered by Disqus
↑ Back to top | Ten Second Epic Tabs for Count Yourself In. Lyrics for acoustic guitar and electric guitar. 1 Tablatures and chords are parodies/interpretations of the original songs. You may use it for private study, scholarship, research or language learning purposes only