» » »

NäKin Laulu Tabs (ver.1)

Artists:  A B C D E F G H I J K L M N O P Q R S T U V W X Y Z # 

NäKin Laulu Tabs (ver.1)

Tenhi
Rating:
0/5 (0 votes)

Hard to play? Try these video lessons and learn fast.
                First part:
   
e|-----0-----0-----0-----0-----0-----0-----0--------|
B|---0-----0-----0-----0-----0-----0-----0----------|
G|-9-----7-----9-----7-----9-----7-----9-----7h9s11-|
D|--------------------------------------------------|
A|--------------------------------------------------|
E|--------------------------------------------------|

e|-----0-----0-----0-----0------0-----0----0--------|
B|---0-----0-----0-----0------0-----0----0----------|
G|-12----11----12----9-----11----7-----9-----7h9s11-|
D|--------------------------------------------------|
A|--------------------------------------------------|
E|--------------------------------------------------|

e|-----0-----0-----0-----0-----0-----0-----0-----0--|
B|---0-----0-----0-----0-----0-----0-----0-----0----|
G|-12----11----12----9-----11----14----12----11-----|
D|--------------------------------------------------|
A|--------------------------------------------------|
E|--------------------------------------------------|

e|-----0-----0-----0-----0-----0-----0-----0--------|
B|---0-----0-----0-----0-----0-----0-----0----------|
G|-9-----7-----9-----7-----9-----7-----9-----7h9s11-|
D|--------------------------------------------------|
A|--------------------------------------------------|
E|--------------------------------------------------|

e|-----0-----0-----0-----0-----0-----0-----0-----0--|
B|---0-----0-----0-----0-----0-----0-----0-----0----|
G|-12----11----12----9-----7-----12----11----9------|
D|--------------------------------------------------|
A|--------------------------------------------------|
E|--------------------------------------------------|

e|-----0-----0-----0-----0-----0-----0-----0-----0--|
B|---0-----0-----0-----0-----0-----0-----0-----0----|
G|-12----11----12----9-----14----12----11----12-----|
D|--------------------------------------------------|
A|--------------------------------------------------|
E|--------------------------------------------------|

Second part:

e|-----0-----0-----0-----0-----0-----0-----0-----0--|
B|---0-----0-----0-----0-----0-----0-----0-----0----|
G|-7-----5-----4-----2-----5-----4-----4-----4------|
D|--------------------------------------------------|
A|--------------------------------------------------|
E|--------------------------------------------------|

Third part:

e|-----0-----0-----0-----0-----0-----0-----0-----0--|
B|---0-----0-----0-----0-----0-----0-----0-----0----|
G|-12----11----9-----9-----9-----9-----9-----9------|
D|--------------------------------------------------|
A|--------------------------------------------------|
E|--------------------------------------------------|

Rhythm guitar in the background:

e|---0---|
B|---0---|
G|---2---|
D|---2---|
A|---0---|
E|-------|

_______________________________________________________

If you can't figure out the number of repetitions and the order of successions yourself,
you don't deserve to play this song.
            
Hard to play? Try these video lessons and learn fast. | Correct




comments powered by Disqus
↑ Back to top | Tablatures and chords are parodies/interpretations of the original songs. You may use it for private study, scholarship, research or language learning purposes only