>
 >
Too Late

Too Late Guitar Tabs

Ten Foot Pole - Too Late chords, tabs, tablatures, lyrics

Guitar lessons | Add/correct | Request | Top 50 tabs Artists:  A B C D E F G H I J K L M N O P Q R S T U V W X Y Z 0-9

Too Late Guitar Tabs – Ten Foot Pole

CD, Sheet music, Poster

Do you like Too Late? Share with your friends now
Tabs
This Ten Foot Pole tab was nowhere so i made this.
i tried to put in the rhythm but some places you need to figure it out by listening to the song.
good luck.

Also, Mxtabs, plz dont delete this one cause it has lyrics, you wouldnt be able to play some 
of the parts in here without them there. thank you.

E------------------------------------------------------------------------------
B------------------------------------------------------------------------------
G------------------------------------------------------------------------------
D--------------------------9-9-9-9--14-14-13-14--------------------------------
A-6-6-6-6-6-6-6-6-6-6-6-6--7-7-7-7--12-12-11-12--8s9-9-9-8s9-9-9-8s9-9-9--9--9-
E-4-4-4-4-4-4-4-4-4-4-4-4------------------------6s7-7-7-6s7-7-7-6s7-7-7--7--7-

E---------------------------------------------------
B---------------------------------------------------
G---------------------------------------------------
D---8-8-8-8-9-9-8-9-8-------------------------------
A-9-6-6-6-6-7-7-6-7-6-------------------------------
E-7-------------------------------------------------

repeat that two times.




Play the same thing for each lines in the song except for the chorus.

  "When she first apologized, it seemed that no one cared."
E---------------------------------------------------
B---------------------------------------------------
G---------------------------------------------------
D--------------------------------9hold--------------
A-6hold--------------------------7hold--------------
E-4hold---------------------------------------------

"no one cared about her shame"
E---------------------------------------------------
B---------------------------------------------------
G---------------------------------------------------
D---------------------------------------------------
A--------9muffle back and forth alot----------------
E--------7muffle back and forth alot----------------

find out the rythym for that part, its too hard to put it on here.


"no one cared about her pain"
E---------------------------------------------------
B---------------------------------------------------
G---------------------------------------------------
D--------8-8-8-8--8hold--------------------------
A--------6-6-6-6--6hold--------------------------
E---------------------------------------------------

Play those same chords with thes lyrics.

"and she could not accept, that no one gave her time"
"she said, they will watch me, yes by god ill make them see"


CHORUS

    "my god, i cant believe your gone"
E---------------------------------------------------------
B---------------------------------------------------------
G---------------------------------------------------------
D-9--9--9-9--9-9-9-9-9------------------------------------
A-7--7--7-7--7-7-7-7-7--------------6--6--6-6--6-6-6-6-6--
E-----------------------------------4--4--4-4--4-4-4-4-4--


     "Its too late to say hang on"
E---------------------------------------------------------
B---------------------------------------------------------
G---------------------------------------------------------
D---------------------------------------------------------
A-2hold-------------------------6-6-6-6-6-6--4-4-4-4-4-4--
E-0hold-------------------------4-4-4-4-4-4--2-2-2-2-2-2--


     "Sometimes you just, have to wait"
E---------------------------------------------------------
B---------------------------------------------------------
G---------------------------------------------------------
D-9--9--9-9--9-9-9-9-9------------------------------------
A-7--7--7-7--7-7-7-7-7--------------6--6--6-6--6-6-6-6-6--
E-----------------------------------4--4--4-4--4-4-4-4-4--


     "This time its just too late"
E---------------------------------------------------------
B---------------------------------------------------------
G---------------------------------------------------------
D---------------------------------------------------------
A-2hold-------------------------6-6-6-6-6-6--4-4-4-4-4-4--
E-0hold-------------------------4-4-4-4-4-4--2-2-2-2-2-2--



The next lines use the same power chords as the first lines.



CHORUS again but different placing for the words.


   "my god, i cant believe your gone, its too late to say hang on"
E----------------------------------------------------------
B----------------------------------------------------------
G----------------------------------------------------------
D-9--9--9-9--9-9-9-9-9-------------------------------------
A-7--7--7-7--7-7-7-7-7-----------6--6--6-6--6-6-6-6-6-----
E--------------------------------4--4--4-4--4-4-4-4-4-----


  "Sometimes you have to wait, this time its just too late"   
E---------------------------------------------------------
B---------------------------------------------------------
G---------------------------------------------------------
D---------------------------------------------------------
A-2hold----------------------6-6-6-6-6-6---4-4-4-4-4-4----
E-0hold--------------------- 4-4-4-4-4-4---2-2-2-2-2-2----


           "I can't believe your gone" 
E---------------------------------------------------------
B---------------------------------------------------------
G---------------------------------------------------------
D-9--9--9-9--9-9-9-9-9------------------------------------
A-7--7--7-7--7-7-7-7-7--------------6--6--6-6--6-6-6-6-6--
E-----------------------------------4--4--4-4--4-4-4-4-4--


     "I can't believe your gone"
E---------------------------------------------------------
B---------------------------------------------------------
G---------------------------------------------------------
D---------------------------------------------------------
A-2hold-------------------------6-6-6-6-6-6--4-4-4-4-4-4--
E-0hold-------------------------4-4-4-4-4-4--2-2-2-2-2-2--


SOLO

In the background of the solo play the power chords that are at the start of the song.
You can figure out where and when to play it.

E------------------------------7---7---6-6-4-6-4----
B---------------------------------------------------
G-8-9-8-11-9--8-9-8-9-8-slide-4---4--4--------------
D---------------------------------------------------
A---------------------------------------------------
E---------------------------------------------------

E-7-6--6-6-4-6-7-6-6-6-6-7-9-11-12-12-11-11-11------
B---------------------------------------------------
G---------------------------------------------------
D---------------------------------------------------
A---------------------------------------------------
E---------------------------------------------------

E-9-7-7-6-7-6-4--4-4-4-6-7-6-7-9-7-----------------------
B--------------------------------------------------------
G------------------------------------3s4--3s4--3s4-4-4-4-
D--------------------------------------------------------
A--------------------------------------------------------
E--------------------------------------------------------
                       
                       "Friends keep tellin me that it'll be alright"
E----------------------------------------------------------------------
B-----------------------------------------------------------12hold-----
G-8s9hold-8-9-9-8-8-8---9hold---------------8hold----------------------
D----------------------------------------------------------------------
A----------------------------------------------------------------------
E----------------------------------------------------------------------


Lines again starting with this

    "But they dont know the cost"
E---------------------------------------------------
B---------------------------------------------------
G---------------------------------------------------
D---------------------------------------------------
A--------9muffle back and forth alot----------------
E--------7muffle back and forth alot----------------

"No they dont know what ive lost"
E---------------------------------------------------
B---------------------------------------------------
G---------------------------------------------------
D---------------------------------------------------
A--------8-8-8-8--8hold-----------------------------
E--------6-6-6-6--6hold-----------------------------


Same chords as the other lines for these lyrics.

"They keep on talking, but to me, theres nothing left"
"There is nothing you can say, there is nothing you can say"



SOLO 2

same background chords as before.

E------------------------------7---7---6-6-4-6-4----
B---------------------------------------------------
G-8-9-8-11-9--8-9-8-9-8-slide-4---4--4--------------
D---------------------------------------------------
A---------------------------------------------------
E---------------------------------------------------

E-7s9-9-9s11-11-12-11-9-11-11-14-12-11-12-14-14-12-11-11-
B--------------------------------------------------------
G--------------------------------------------------------
D--------------------------------------------------------
A--------------------------------------------------------
E--------------------------------------------------------

E-9-7-7-6-7-6-4--4-4-4-6-7-6-7-9-7-----------------------
B--------------------------------------------------------
G--------------------------------------------------------
D--------------------------------------------------------
A--------------------------------------------------------
E--------------------------------------------------------

E-7-7-7-6-4-----------4-4-6-6-4-6hold--------------------
B-----------4-5-7-5-4------------------------------------
G--------------------------------------------------------
D--------------------------------------------------------
A--------------------------------------------------------
E--------------------------------------------------------

Thats the end of the song.

Remember to listen to the song and make sure you got the rhythm and everything good.





Comments


Popular Ten Foot Pole tabs & chords
Denial Bass Tabs
I Won't Complain Today Bass Tabs
John 1 Bass Tabs
A.D.D. Tabs
Armchair Quaterback Tabs
Kicked Out Of Kindergarten Tabs
One Hero Tabs
Still Believe Tabs
What You Want Tabs
Excuses Ukulele


Song lyrics



↑ Back to top | Tablatures and chords are parodies/interpretations of the original songs. You may use it for private study, scholarship, research or language learning purposes only
© 2014 AZChords.com Contact us | Privacy policy | DMCA | Add/correct tabs | Request tabs | Top 50 tabs