» » »

This Is But A Test Tabs (ver.1)

Artists:  A B C D E F G H I J K L M N O P Q R S T U V W X Y Z # 

This Is But A Test Tabs (ver.1)

Ten Foot Pole
Rating:
0/5 (0 votes)

Hard to play? Try these video lessons and learn fast.
                Intro & Chorus "This is a but a test..."
e|--------------------------------------------|
B|--------------------------------------------|
G|-------7-----5-----6-----10-----6-----5-----|
D|-3-----7-----5-----6-----10-----6-----5-----|
A|-3-----5-----3-----4------8-----4-----3-----|
E|-1------------------------------------------|

e|--------------------------------------------|   |-------|
B|--------------------------------------------|   |-[End]-|
G|-------7-----5-----6-----10-----6-----3--5--|   |-------|
D|-3-----7-----5-----6-----10-----6-----3--5--|   |---3---|
A|-3-----5-----3-----4------8-----4-----1--3--|   |---3---|
E|-1------------------------------------------|   |---1---|

Verse "I didn't notice that you cut your hair..."
e|-----------------------|
B|-----------------------|
G|-------6-----5-----3---|
D|-3-----6-----5-----3---|
A|-3-----4-----3-----1---|
E|-1---------------------|

thats all i got...i dont know the solo
            
Hard to play? Try these video lessons and learn fast. | Correct




comments powered by Disqus
↑ Back to top | Tablatures and chords are parodies/interpretations of the original songs. You may use it for private study, scholarship, research or language learning purposes only