» » »

Ten Foot Pole, One Hero Tabs (ver.1)

Artists:  A B C D E F G H I J K L M N O P Q R S T U V W X Y Z # 

One Hero Tabs (ver.1)

Ten Foot Pole Tabs
 Rating:
4/5 (4 votes)
One Hero lessons Tabs too difficult? Try these video lessons and learn fast
1
                INTRO: (Strumming not shown)  
  
   Gtr. 1  
G|-6----------------------------------------------|  
D|-6-----------6-----------8-----------4----------|  
A|-4-----------6-----------8-----------4----------|  
E|-------------4-----------6-----------2----------|  
 |                                                |  
 | Gtr. 2                  /   Single  \          |  
G|-------------------------11-10-8--10-6----------|  
D|-------------------------11-10-8--10-6----------|  
A|-------------------------9--8--6--8--4----------|  
E|------------------------------------------------|  
  
   Gtr. 1                            Single  
G|-6----------------------------------------------|  
D|-6-----------3-----------8-----------4----------|  
A|-4-----------3-----------8-----------4----------|  
E|-------------1-----------6-----------2----------|  
 |                                                |  
 | Gtr. 2                            Single       |  
G|-6-----------8-----------10----------6----------|  
D|-6-----------6-----------8-----------4----------|  
A|-4-----------6-----------8-----------4----------|  
E|------------------------------------------------|  
  
  
A|-4---4---4-4-4-|  
E|-2---2---2-2-2-|  
   h   h   h h h  
  PM.............  
  
  
VERSE: (Strumming not shown)  
  
   Gtr. 1  
D|-6-----------------------| X2  
A|-4-----------3-----------|  
E|-------------1-----------|  
   PM......................  
  
  
   Gtr. 1                              /   Single   \  
G|-6-----------8------------------------------------|  
D|-X-----------X-----------6-----------4----11-10-8-|  
A|-4-----------6-----------X-----------4----9--8--6-|  
E|-------------------------4-----------2------------|  
 |                                                  |  
 | Gtr. 2                               /   Single \|  
G|-6-----------8------------------------------------|  
D|-6-----------6-----------6-----------4----11-10-8-|  
A|-4-----------6-----------4-----------4----9--8--6-|  
E|-------------------------4-----------2------------|  
  
  
CHORUS: (Strumming not shown)  
  
   Gtr. 1  
G|-6------------------------------------------------|  
D|-6-----------6-----------8-----------4------------|  
A|-4-----------6-----------8-----------4------------|  
E|-------------4-----------6-----------2------------|  
 |                                                  |  
 | Gtr. 2                              /   Single  \|  
G|-6------------------------------------------------|  
D|-6-----------6-----------8-----------4----11-10-8-|  
A|-4-----------6-----------8-----------4----9--8--6-|  
E|-------------4-----------6-----------2------------|  
  
   Gtr. 1 + 2                        Single  
G|-6------------------------------------------------|  
D|-6-----------3-----------8-----------4------------|  
A|-4-----------3-----------8-----------4------------|  
E|-------------1-----------6-----------2------------|  
  
  
Repeat VERSE  
Repeat CHORUS  
  
  
SOLO:  
  
   Gtr. 2  
B|-----6--7-6--------11-11--\-7----------6-h7p6--------11-11--\-7------|  
G|-6-8---------6---------------------6-8---------6---------------------|  
 |                                                                     |  
 | Gtr. 1                                                              |  
D|-------------------8--8---\-4------------------------8--8---\-4------|  
A|-444444444444444---8--8---\-4------444444444444444---8--8---\-4------|  
E|-222222222222222---6--6---\-2------222222222222222---6--6---\-2------|  
  PM........... .                   PM........... .  
  
  
   Gtr. 2  
E|-----------------------------------------------------9--9-p8---------|  
B|-7-7-7--7-7--7-----11-11--\-7------7---6---4---6--------------9------|  
G|---------------------------------------------------------------------|  
 |                                                                     |  
 | Gtr. 1                                                              |  
D|-4-4-4--X-4--4-----8--8---\-4------4-4-4--X-4--4-----8--8---\-4------|  
A|-4-4-4--X-4--4-----8--8---\-4------4-4-4--X-4--4-----8--8---\-4------|  
E|-2-2-2--x-2--2-----6--6---\-2------2-2-2----2--2-----6--6---\-2------|  
  
  
OUTRO:  
  
 /                   Single                         \  
G|-6------------------------------------------------|  
D|-6-----------6-----------8-----------4------------|  
A|-4-----------6-----------8-----------4------------|  
E|-------------4-----------6-----------2------------|  
  
  
 /                   Single                         \  
G|-6-----------8-----------10----------11-----------|  
D|-6-----------8-----------10----------11-----------|  
A|-4-----------6-----------8-----------9------------|  
E|--------------------------------------------------|  
  
  
Repeat CHORUS  
  
     /    BASS FILL:                    \  
    |                                    |  
    |        Bass converted to guitar    |  
    |     D|--------------11---9-8-7-|   |  
     \                                  /  
  
Repeat CHORUS  
  
  
  
That's the end, hope you like it! Mail me if any problems, questions or  
(Please tell me that there are no mistakes!)  
  
P.S. Guitar 2 in the VERSE is not tabbed, 'cause it's not nessesary  
(doesn't sound good!)
            
Submit corrections

comments powered by Disqus
↑ Back to top | Ten Foot Pole Tabs for One Hero. Lyrics for acoustic guitar and electric guitar. 1 Tablatures and chords are parodies/interpretations of the original songs. You may use it for private study, scholarship, research or language learning purposes only