» » »

I Won Commplain Tabs (ver.1)

Artists:  A B C D E F G H I J K L M N O P Q R S T U V W X Y Z # 

I Won Commplain Tabs (ver.1)

Ten Foot Pole
Rating:
0/5 (0 votes)

Hard to play? Try these video lessons and learn fast.
                OPENING: 
  (Bass converted to guitar!) 
E|-0---0-----0-0-0-7---7-----7-7-7-5---5-----5-5-5-7---7-----7-7-7-| 
 
   Gtr.s 
G|-9-9---9---9---9-| 
D|-9-9---9---9---9-| 
A|-7-7---7---7---7-| 
 
 
INTRO: 
 
   Gtr. 3 
G|-9-8-9-11--9-9-8-9-11--9-8-9-8-9-------13-13-11-13p11-9-11--13-13-11-13-11-| 
D|---------------------------------11-9--------------------------------------| 
 
G|-9-9-8-9-11-9--13-13-11-13p11-9-11-| 
 
Play following while Gtr. 3 plays riff: (Strumming not shown) 
 
   Gtr. 1 
G|-------4-----2-----4-----| 
D|-2-----4-----2-----4-----| 
A|-2-----2-----0-----2-----| 
E|-0-----------------------| 
 |                         | 
 | Gtr. 2                  | 
G|-9-----------------13-7--| 
D|-9-----------------13-7--| 
A|-7-----------------11-9--| 
 
 
VERSE: (Strumming not shown) 
 
   Gtr. 1 
G|-------4-----2-----4-----| X [As needed!] 
D|-2-----4-----2-----4-----| 
A|-2-----2-----0-----2-----| 
E|-0-----------------------| 
 |                         | 
 | Gtr. 2                  | 
G|-9-----------------13-7--| 
D|-9-----------------13-7--| 
A|-7-----------------11-9--| 
 
   Gtr. 1 
G|-------4-----2--4--6--8--| 
D|-2-----4-----2--4--6--8--| 
A|-2-----2-----0--2--4--6--| 
E|-0-----------------------| 
 |                         | 
 | Gtr. 2                  | 
G|-9-----------------13-7--| 
D|-9-----------------13-7--| 
A|-7-----------------11-9--| 
 
 
PRE-CHORUS: (Gtr. 2 Strumming not shown) 
 
   Gtr. 1 (Single strummed power chords) 
D|-2-----11----13----9-----| 
A|-2-----11----13----9-----| 
E|-0-----9-----11----7-----| 
 |                         | 
 | Gtr. 2                  | 
G|-9-----6-----8-----4-----| 
D|-9-----6-----8-----4-----| 
A|-7-----4-----6-----2-----| 
 
 
CHORUS: (Strumming not shown) 
 
G|-------4-----6-----------|  X2 
D|-2-----4-----6-----------| 
A|-2-----2-----4-----------| 
E|-0-----------------------| 
 
G|-------4-----------6-----| 
D|-2-----4-----2-----6-----| 
A|-2-----2-----2-----4-----| 
E|-0-----------0-----------| 
 
G|-------4-----2-----6-----| 
D|-2-----4-----2-----6-----| 
A|-2-----2-----0-----4-----| 
E|-0-----------------------| 
 
 
INTERLUDE: (Single strummed power chords) 
 
G|-9-----------------------| 
D|-9-----11----13----9-----| 
A|-7-----11----13----9-----| 
E|-------9-----11----7-----| 
 
 
OUTRO: (Strumming not shown) 
 
G|-------4-----2-----4-----------4-----2--4--6--8--| X [As needed] 
D|-2-----4-----2-----4-----2-----4-----2--4--6--8--| 
A|-2-----2-----0-----2-----2-----2-----0--2--4--6--| 
E|-0-----------------------0-----------------------| 
 
 
END ON: 
 
G|-9\-| 
D|-9\-| 
A|-7\-| 
 
 
 
I'm pretty sure that this is correct but if you find any mistake  
And if you have any questions or something mail me, too.
            
Hard to play? Try these video lessons and learn fast. | Correct




comments powered by Disqus
↑ Back to top | Tablatures and chords are parodies/interpretations of the original songs. You may use it for private study, scholarship, research or language learning purposes only