» » »

Happy Daze Tabs (ver.1)

Artists:  A B C D E F G H I J K L M N O P Q R S T U V W X Y Z # 

Happy Daze Tabs (ver.1)

Ten Foot Pole
Rating:
0/5 (0 votes)

Hard to play? Try these video lessons and learn fast.
                INTRO: 
 
   Bass? converted to guitar 
A|-8---8----5----5---6---6---5---5---8---8---5---5---6---6---5---5--56| 
 |                                                                    | 
 | Guitar                                                             | 
G|-----10-----10---------8-----8---------7-----7---------7-----7------| 
D|---8----8------------8---8-----------8---8-----------8---8----------| 
A|-8--------8--------8-------8-------8-------8-------8-------8--------| 
 
   Bass? converted to guitar 
A|-8---8----5----5---6---6---5---5---8---8---5---5---6---6---5--------| 
 |                                                                    | 
 | Guitar                                                             | 
G|-----10-----10---------8-----8---------7-----7---------7---7--------| 
D|---8----8------------8---8-----------8---8-----------8---8-8--------| 
A|-8--------8--------8-------8-------8-------8-------8-------8--------| 
 
   Gtr/w. distr. 
D|-8-8-8-8----8-| 
A|-8-8-8-8----8-| 
E|-6-6-6-6----6-| 
 
 
BRIDGE: 
 
G|---------7-7---7-8-8---8-5-5---5-------------------------10------| X2 
D|-8-8---8-7-7---7-8-8---8-5-5---5-8-8---8-5-5---5-3-3-----10------|   
A|-8-8---8-5-5---5-6-6---6-3-3---3-8-8---8-5-5---5-3-3-----8-------| 
E|-6-6---6-------------------------6-6---6-3-3---3-1-1-------------| 
 
 
Repeat BRIDGE X2 for VERSE 1 
 
 
CHORUS: (Strumming not shown) 
 
G|-------------------------8-------------------------------10-8-7--| 
D|-8-------5-------3-------8-------8-------5-------3-------10-8-7--|   
A|-8-------5-------3-------6-------8-------5-------3-------8--6-5--| 
E|-6-------3-------1---------------6-------3-------1---------------| 
 
G|-------------------------8---------------------------------------| 
D|-8-------5-------3-------8-------8-------5-------3---------------| 
A|-8-------5-------3-------6-------8-------5-------3---------------| 
E|-6-------3-------1---------------6-------3-------1---------------| 
 
 
VERSE 2: 
 
G|---------7-7---7-8-8---8-5-5---5-------------------------10------| X2 
D|-8-8---8-7-7---7-8-8---8-5-5---5-8-8---8-5-5---5-3-3-----10------| 
A|-8-8---8-5-5---5-6-6---6-3-3---3-8-8---8-5-5---5-3-3-----8-------| 
E|-6-6---6-------------------------6-6---6-3-3---3-1-1-------------| 
   PM................................................ .  . 
 
Repeat BRIDGE for VERSE 2 Second Part 
Repeat CHORUS 
 
INTERLUDE: 
 
   Gtr. 1 
G|-10--10-X-7---7--7-7-8--8-X-7----------| 
 |                                       | 
 | Gtr. 2                                | 
G|-3-------------------------------------| 
D|-3-------------------------------------| 
A|-1-------------------------------------| 
 
   Gtr. 1 
G|-10--10-X-7---7--7-7-8--8-X-7----------| 
 |                                       | 
 | Gtr. 2                                | 
G|-3-------------------------------------| 
D|-3-------------------------------------| 
A|-1-------------------------------------| 
 |                                       | 
 | Bass converted to guitar              | 
E|-----------------------------6---8--10-| 
 
   Gtr. 1 
G|-10--10-X-7---7--7-7-8--8-X-7----------| X3 
 |                                       | 
 | Gtr. 2                                | 
G|-3--------3/(4)\(3)-----------3/(4)\(3)| 
D|-3-------------------3-----------------| 
A|-1-------------------1-----------------| 
E|---------------------1-----------------| 
 
D|-8-8--8--X-X-X-| X3 
A|-8-8--8--X-X-X-| 
E|-6-6--6--X-X-X-| 
 
D|-8-8---8-8----|    
A|-8-8---8-8----| 
E|-6-6---5-5----| 
 
Repeat CHORUS 
 
OUTRO: 
 
G|---------------------------8--X-8--8--X-10--------------| X2 
D|-8--X-8--8--X-5--X-5--5--X-8--X-8--8--X-10--------------| 
A|-8--X-8--8--X-5--X-5--5--X-6--X-6--6--X-8--8-8-8-8-8-8--| 
E|-6--X-6--6--X-3--X-3--3--X------------------------------| 
                                             h h h h h h 
 
G|---------------------------8--X-8--8--X-10---10--10--10-|  
D|-8--X-8--8--X-5--X-5--5--X-8--X-8--8--X-10---10--10--10-| 
A|-8--X-8--8--X-5--X-5--5--X-6--X-6--6--X-8----8---8---8--| 
E|-6--X-6--6--X-3--X-3--3--X------------------------------| 
                                               >   >   > 
 
                             This is no good, but it's the best that I could! 
G|---------------------------8-----7------5--------3------|  
D|-8--X-8--8--X-5--X-5--5--X-8-----7------5--------3------| 
A|-8--X-8--8--X-5--X-5--5--X-6-----5------3--------1------| 
E|-6--X-6--6--X-3--X-3--3--X------------------------------| 
 
 
Yeah, this is IT! I'm sure it's right, maybe the Gtr. 2 in the INTERLUDE isn't 
that great but it'll work, trust me! But if you'll find any mistake or have 
 
P.S. I know that there in the OUTRO and in the CHORUS is a second guitar, but 
I didn't put it (too difficult), but if you really like to know how to play it 
just mail me, maybe I'll tab it!
            
Hard to play? Try these video lessons and learn fast. | Correct




comments powered by Disqus
↑ Back to top | Tablatures and chords are parodies/interpretations of the original songs. You may use it for private study, scholarship, research or language learning purposes only