» » »

Dying Duck In A Thunder Storm Tabs (ver.1)

Artists:  A B C D E F G H I J K L M N O P Q R S T U V W X Y Z # 

Dying Duck In A Thunder Storm Tabs (ver.1)

Ten Foot Pole
Rating:
0/5 (0 votes)

Hard to play? Try these video lessons and learn fast.
                                Ten Foot Pole - Dying Duck in a Thunder Storm


Intro:
e-|---------------------------------------------|
B-|---------------------------------------------|
G-|---------------------------------------------|
D-|-----5---8-8-8-8-8-8-8-----6---9-9-9-9-9-9-9-|
A-|-3-3-3-6-6-6-6-6-6-6-6-4-4-4-7-7-7-7-7-7-7-7-|
E-|-1-1---4---------------2-2---5---------------|

Verse:
e-|-------------------------------------------------------------------------
B-|-------------------------------------------------------------------------
G-|-10-10-13-13-8-8-8-8-10-10-13-13-8-8-8-8-10-10-13-13-8-8-8-8-10-10-13-13-
D-|-10-10-13-13-8-8-8-8-10-10-13-13-8-8-8-8-10-10-13-13-8-8-8-8-10-10-13-13-
A-|--8--8-11-11-6-6-6-6--8--8-11-11-6-6-6-6--8--8-11-11-6-6-6-6--8--8-11-11-
E-|-------------------------------------------------------------------------

e-|-------------------------------------------------------------------------|
B-|-------------------------------------------------------------------------|
G-|8-8-8-8-10-10-10-13-13-13-8-8-8-8-8-8-8-10-10-10-6-6-6-6-8-8-8-8-8-8-8-8-|
D-|8-8-8-8--x--x--x-xx-xx-xx-x-x-x-x-x-x-x--x--x--x-x-x-x-x-x-x-x-x-x-x-x-x-|
A-|6-6-6-6--8--8--8-11-11-11-6-6-6-6-6-6-6--8--8--8-4-4-4-4-6-6-6-6-6-6-6-6-|
E-|-------------------------------------------------------------------------|

Prechorus(you.look.up.at.etc.)
e-|------------------------------------------------------------------------------------|
B-|------------------------------------------------------------------------------------|
G-|------------------------------------------------------------------------------------|
D-|-------------10-10-10-10-------------10-10-10-10------------10-10-10-10-8-8-8-8-8-8-|
A-|-11-11-11-11--8--8--8--8-11-11-11-11--8--8--8--8-11-11-11-11-8--8--8--8-6-6-6-6-6-6-|
E-|--9--9--9--9--------------9--9--9--9--------------9--9--9--9------------------------|

Chorus(first.two.bars.palm.muted)
e-|-------------------------------------------------------------------|
B-|-------------------------------------------------------------------|
G-|-------------------------------------------------------------------|
D-|-------------------------------------------6-6-6-6-----------------|
A-|-8-8-8-8-8-8-8-8-6-4-4-4-4-4-4-4-4-3-3-3-3-4-4-4-4-6-8-10-10-10-10-|
E-|-6-6-6-6-6-6-6-6-4-2-2-2-2-2-2-2-2-1-1-1-1---------4-6--8--8--8--8-|

Bridge:
e-|-------------------------------------------------------------------------------
B-|-12-12-----12-12-----12-12-----12-12----12-12-----12-12-----12-12-----12-12----
G-|-11-11-----11-11-----11-11-----11-11-10-11-11-----11-11-----11-11-----11-11-10-
D-|--x--x-x-x--x--x-x-x--x--x-x-x--x--x-10--x--x-x-x--x--x-x-x--x--x-x-x--x--x-10-
A-|--9--9-x-x--9--9-x-x--9--9-x-x--9--9--8--9--9-x-x--9--9-x-x--9--9-x-x--9--9--8-
E-|-------------------------------------------------------------------------------

e-|----------------------------------------------------------------------------|
B-|-12-12-----12-12-----12-12-----12-12----12-12-----12-12-----12-12-----12-12-|
G-|-11-11-----11-11-----11-11-----11-11-10-11-11-----11-11-----11-11-----11-11-|
D-|--x--x-x-x--x--x-x-x--x--x-x-x--x--x-10--x--x-x-x--x--x-x-x--x--x-x-x--x--x-|
A-|--9--9-x-x--9--9-x-x--9--9-x-x--9--9--8--9--9-x-x--9--9-x-x--9--9-x-x--9--9-|
E-|----------------------------------------------------------------------------|

Prechorus
Intro
            
Hard to play? Try these video lessons and learn fast. | Correct




comments powered by Disqus
↑ Back to top | Tablatures and chords are parodies/interpretations of the original songs. You may use it for private study, scholarship, research or language learning purposes only